  0
SECTION
  2
HEADER
  9
$ACADVER
  1
AC1015
  9
$ACADMAINTVER
 70
     6
  9
$DWGCODEPAGE
  3
ANSI_1254
  9
$INSBASE
 10
0.0
 20
0.0
 30
0.0
  9
$EXTMIN
 10
0.0
 20
0.0
 30
0.0
  9
$EXTMAX
 10
279.4
 20
215.9
 30
0.0
  9
$LIMMIN
 10
0.0
 20
0.0
  9
$LIMMAX
 10
279.4
 20
215.9
  9
$ORTHOMODE
 70
     0
  9
$REGENMODE
 70
     1
  9
$FILLMODE
 70
     1
  9
$QTEXTMODE
 70
     0
  9
$MIRRTEXT
 70
     1
  9
$LTSCALE
 40
1.0
  9
$ATTMODE
 70
     1
  9
$TEXTSIZE
 40
3.5
  9
$TRACEWID
 40
1.0
  9
$TEXTSTYLE
  7
Standard
  9
$CLAYER
  8
0
  9
$CELTYPE
  6
ByLayer
  9
$CECOLOR
 62
   256
  9
$CELTSCALE
 40
1.0
  9
$DISPSILH
 70
     0
  9
$DIMSCALE
 40
1.0
  9
$DIMASZ
 40
3.5
  9
$DIMEXO
 40
1.0
  9
$DIMDLI
 40
3.75
  9
$DIMRND
 40
0.0
  9
$DIMDLE
 40
0.0
  9
$DIMEXE
 40
1.0
  9
$DIMTP
 40
0.0
  9
$DIMTM
 40
0.0
  9
$DIMTXT
 40
3.5
  9
$DIMCEN
 40
2.5
  9
$DIMTSZ
 40
0.0
  9
$DIMTOL
 70
     0
  9
$DIMLIM
 70
     0
  9
$DIMTIH
 70
     1
  9
$DIMTOH
 70
     1
  9
$DIMSE1
 70
     0
  9
$DIMSE2
 70
     0
  9
$DIMTAD
 70
     1
  9
$DIMZIN
 70
     0
  9
$DIMBLK
  1

  9
$DIMASO
 70
     1
  9
$DIMSHO
 70
     1
  9
$DIMPOST
  1

  9
$DIMAPOST
  1

  9
$DIMALT
 70
     0
  9
$DIMALTD
 70
     3
  9
$DIMALTF
 40
0.0393700787
  9
$DIMLFAC
 40
1.0
  9
$DIMTOFL
 70
     1
  9
$DIMTVP
 40
0.0
  9
$DIMTIX
 70
     0
  9
$DIMSOXD
 70
     0
  9
$DIMSAH
 70
     0
  9
$DIMBLK1
  1

  9
$DIMBLK2
  1

  9
$DIMSTYLE
  2
ISO-25
  9
$DIMCLRD
 70
     0
  9
$DIMCLRE
 70
     0
  9
$DIMCLRT
 70
     0
  9
$DIMTFAC
 40
1.0
  9
$DIMGAP
 40
1.524
  9
$DIMJUST
 70
     0
  9
$DIMSD1
 70
     0
  9
$DIMSD2
 70
     0
  9
$DIMTOLJ
 70
     0
  9
$DIMTZIN
 70
     0
  9
$DIMALTZ
 70
     0
  9
$DIMALTTZ
 70
     0
  9
$DIMUPT
 70
     0
  9
$DIMDEC
 70
     2
  9
$DIMTDEC
 70
     2
  9
$DIMALTU
 70
     2
  9
$DIMALTTD
 70
     3
  9
$DIMTXSTY
  7
Standard
  9
$DIMAUNIT
 70
     0
  9
$DIMADEC
 70
     2
  9
$DIMALTRND
 40
0.0
  9
$DIMAZIN
 70
     0
  9
$DIMDSEP
 70
    44
  9
$DIMATFIT
 70
     3
  9
$DIMFRAC
 70
     0
  9
$DIMLDRBLK
  1

  9
$DIMLUNIT
 70
     2
  9
$DIMLWD
 70
    -2
  9
$DIMLWE
 70
    -2
  9
$DIMTMOVE
 70
     0
  9
$LUNITS
 70
     2
  9
$LUPREC
 70
     2
  9
$SKETCHINC
 40
1.0
  9
$FILLETRAD
 40
10.0
  9
$AUNITS
 70
     0
  9
$AUPREC
 70
     2
  9
$MENU
  1
.
  9
$ELEVATION
 40
0.0
  9
$PELEVATION
 40
0.0
  9
$THICKNESS
 40
0.0
  9
$LIMCHECK
 70
     0
  9
$CHAMFERA
 40
0.0
  9
$CHAMFERB
 40
0.0
  9
$CHAMFERC
 40
0.0
  9
$CHAMFERD
 40
0.0
  9
$SKPOLY
 70
     0
  9
$TDCREATE
 40
2458985.718088982
  9
$TDUCREATE
 40
2458985.593088982
  9
$TDUPDATE
 40
2458985.718089236
  9
$TDUUPDATE
 40
2458985.593089236
  9
$TDINDWG
 40
0.0000000116
  9
$TDUSRTIMER
 40
0.0000000116
  9
$USRTIMER
 70
     1
  9
$ANGBASE
 50
0.0
  9
$ANGDIR
 70
     0
  9
$PDMODE
 70
     0
  9
$PDSIZE
 40
-1.0
  9
$PLINEWID
 40
0.0
  9
$SPLFRAME
 70
     0
  9
$SPLINETYPE
 70
     6
  9
$SPLINESEGS
 70
     8
  9
$HANDSEED
  5
DD
  9
$SURFTAB1
 70
     6
  9
$SURFTAB2
 70
     6
  9
$SURFTYPE
 70
     6
  9
$SURFU
 70
     6
  9
$SURFV
 70
     6
  9
$UCSBASE
  2

  9
$UCSNAME
  2

  9
$UCSORG
 10
0.0
 20
0.0
 30
0.0
  9
$UCSXDIR
 10
1.0
 20
0.0
 30
0.0
  9
$UCSYDIR
 10
0.0
 20
1.0
 30
0.0
  9
$UCSORTHOREF
  2

  9
$UCSORTHOVIEW
 70
     0
  9
$UCSORGTOP
 10
0.0
 20
0.0
 30
0.0
  9
$UCSORGBOTTOM
 10
0.0
 20
0.0
 30
0.0
  9
$UCSORGLEFT
 10
0.0
 20
0.0
 30
0.0
  9
$UCSORGRIGHT
 10
0.0
 20
0.0
 30
0.0
  9
$UCSORGFRONT
 10
0.0
 20
0.0
 30
0.0
  9
$UCSORGBACK
 10
0.0
 20
0.0
 30
0.0
  9
$PUCSBASE
  2

  9
$PUCSNAME
  2

  9
$PUCSORG
 10
0.0
 20
0.0
 30
0.0
  9
$PUCSXDIR
 10
1.0
 20
0.0
 30
0.0
  9
$PUCSYDIR
 10
0.0
 20
1.0
 30
0.0
  9
$PUCSORTHOREF
  2

  9
$PUCSORTHOVIEW
 70
     0
  9
$PUCSORGTOP
 10
0.0
 20
0.0
 30
0.0
  9
$PUCSORGBOTTOM
 10
0.0
 20
0.0
 30
0.0
  9
$PUCSORGLEFT
 10
0.0
 20
0.0
 30
0.0
  9
$PUCSORGRIGHT
 10
0.0
 20
0.0
 30
0.0
  9
$PUCSORGFRONT
 10
0.0
 20
0.0
 30
0.0
  9
$PUCSORGBACK
 10
0.0
 20
0.0
 30
0.0
  9
$USERI1
 70
     0
  9
$USERI2
 70
     0
  9
$USERI3
 70
     0
  9
$USERI4
 70
     0
  9
$USERI5
 70
     0
  9
$USERR1
 40
0.0
  9
$USERR2
 40
0.0
  9
$USERR3
 40
0.0
  9
$USERR4
 40
0.0
  9
$USERR5
 40
0.0
  9
$WORLDVIEW
 70
     1
  9
$SHADEDGE
 70
     3
  9
$SHADEDIF
 70
    70
  9
$TILEMODE
 70
     1
  9
$MAXACTVP
 70
    64
  9
$PINSBASE
 10
0.0
 20
0.0
 30
0.0
  9
$PLIMCHECK
 70
     0
  9
$PEXTMIN
 10
1.0000000000E+20
 20
1.0000000000E+20
 30
1.0000000000E+20
  9
$PEXTMAX
 10
-1.0000000000E+20
 20
-1.0000000000E+20
 30
-1.0000000000E+20
  9
$PLIMMIN
 10
0.0
 20
0.0
  9
$PLIMMAX
 10
420.0
 20
297.0
  9
$UNITMODE
 70
     0
  9
$VISRETAIN
 70
     1
  9
$PLINEGEN
 70
     0
  9
$PSLTSCALE
 70
     1
  9
$TREEDEPTH
 70
  3020
  9
$CMLSTYLE
  2
Standard
  9
$CMLJUST
 70
     0
  9
$CMLSCALE
 40
20.0
  9
$PROXYGRAPHICS
 70
     1
  9
$MEASUREMENT
 70
     1
  9
$CELWEIGHT
370
    -1
  9
$ENDCAPS
280
     0
  9
$JOINSTYLE
280
     0
  9
$LWDISPLAY
290
     1
  9
$INSUNITS
 70
     4
  9
$HYPERLINKBASE
  1

  9
$STYLESHEET
  1

  9
$XEDIT
290
     1
  9
$CEPSNTYPE
380
     0
  9
$PSTYLEMODE
290
     1
  9
$FINGERPRINTGUID
  2
{6241e678-7789-4614-9e14-b6a9fdaefb58}
  9
$VERSIONGUID
  2
{FAEB1C32-E019-11D5-929B-00C0DF256EC4}
  9
$EXTNAMES
290
     1
  9
$PSVPSCALE
 40
0.0
  9
$OLESTARTUP
290
     0
  0
ENDSEC
  0
SECTION
  2
CLASSES
  0
CLASS
  1
ACDBDICTIONARYWDFLT
  2
AcDbDictionaryWithDefault
  3
ObjectDBX Classes
 90
        0
280
     0
281
     0
  0
CLASS
  1
VISUALSTYLE
  2
AcDbVisualStyle
  3
ObjectDBX Classes
 90
     4095
280
     0
281
     0
  0
CLASS
  1
MATERIAL
  2
AcDbMaterial
  3
ObjectDBX Classes
 90
     1153
280
     0
281
     0
  0
CLASS
  1
SCALE
  2
AcDbScale
  3
ObjectDBX Classes
 90
     1153
280
     0
281
     0
  0
CLASS
  1
TABLESTYLE
  2
AcDbTableStyle
  3
ObjectDBX Classes
 90
     4095
280
     0
281
     0
  0
CLASS
  1
MLEADERSTYLE
  2
AcDbMLeaderStyle
  3
ACDB_MLEADERSTYLE_CLASS
 90
     4095
280
     0
281
     0
  0
CLASS
  1
SUN
  2
AcDbSun
  3
SCENEOE
 90
     1153
280
     0
281
     0
  0
CLASS
  1
ACDBPLACEHOLDER
  2
AcDbPlaceHolder
  3
ObjectDBX Classes
 90
        0
280
     0
281
     0
  0
CLASS
  1
LAYOUT
  2
AcDbLayout
  3
ObjectDBX Classes
 90
        0
280
     0
281
     0
  0
ENDSEC
  0
SECTION
  2
TABLES
  0
TABLE
  2
VPORT
  5
8
330
0
100
AcDbSymbolTable
 70
     1
  0
VPORT
  5
29
330
8
100
AcDbSymbolTableRecord
100
AcDbViewportTableRecord
  2
*Active
 70
     0
 10
0.0
 20
0.0
 11
1.0
 21
1.0
 12
139.7
 22
107.95
 13
0.0
 23
0.0
 14
10.0
 24
10.0
 15
10.0
 25
10.0
 16
0.0
 26
0.0
 36
1.0
 17
0.0
 27
0.0
 37
0.0
 40
215.9
 41
1.2941176471
 42
50.0
 43
0.0
 44
0.0
 50
0.0
 51
0.0
 71
     0
 72
  2000
 73
     1
 74
     3
 75
     0
 76
     0
 77
     0
 78
     0
281
     0
 65
     1
110
0.0
120
0.0
130
0.0
111
1.0
121
0.0
131
0.0
112
0.0
122
1.0
132
0.0
 79
     0
146
0.0
  0
ENDTAB
  0
TABLE
  2
LTYPE
  5
5
330
0
100
AcDbSymbolTable
 70
     6
  0
LTYPE
  5
14
330
5
100
AcDbSymbolTableRecord
100
AcDbLinetypeTableRecord
  2
ByBlock
 70
     0
  3

 72
    65
 73
     0
 40
0.0
  0
LTYPE
  5
15
330
5
100
AcDbSymbolTableRecord
100
AcDbLinetypeTableRecord
  2
ByLayer
 70
     0
  3

 72
    65
 73
     0
 40
0.0
  0
LTYPE
  5
16
330
5
100
AcDbSymbolTableRecord
100
AcDbLinetypeTableRecord
  2
Continuous
 70
     0
  3
Solid line
 72
    65
 73
     0
 40
0.0
  0
LTYPE
  5
6E
330
5
100
AcDbSymbolTableRecord
100
AcDbLinetypeTableRecord
  2
HIDDEN
 70
     0
  3
Hidden __ __ __ __ __ __ __ __ __ __ __ __ __ __
 72
    65
 73
     2
 40
1.905
 49
1.27
 74
     0
 49
-0.635
 74
     0
  0
LTYPE
  5
6F
330
5
100
AcDbSymbolTableRecord
100
AcDbLinetypeTableRecord
  2
PHANTOM
 70
     0
  3
Phantom ______  __  __  ______  __  __  ______
 72
    65
 73
     6
 40
12.7
 49
6.35
 74
     0
 49
-1.27
 74
     0
 49
1.27
 74
     0
 49
-1.27
 74
     0
 49
1.27
 74
     0
 49
-1.27
 74
     0
  0
LTYPE
  5
70
330
5
100
AcDbSymbolTableRecord
100
AcDbLinetypeTableRecord
  2
CENTER
 70
     0
  3
Center ____ _ ____ _ ____ _ ____ _ ____ _ ____
 72
    65
 73
     4
 40
10.16
 49
6.35
 74
     0
 49
-1.27
 74
     0
 49
1.27
 74
     0
 49
-1.27
 74
     0
  0
LTYPE
  5
71
330
5
100
AcDbSymbolTableRecord
100
AcDbLinetypeTableRecord
  2
CENTERX2
 70
     0
  3
Center (2x) ________  __  ________  __  _____
 72
    65
 73
     4
 40
20.32
 49
12.7
 74
     0
 49
-2.54
 74
     0
 49
2.54
 74
     0
 49
-2.54
 74
     0
  0
LTYPE
  5
72
330
5
100
AcDbSymbolTableRecord
100
AcDbLinetypeTableRecord
  2
DOT2
 70
     0
  3
Dot (.5x) ........................................
 72
    65
 73
     2
 40
0.635
 49
0.0
 74
     0
 49
-0.635
 74
     0
  0
ENDTAB
  0
TABLE
  2
LAYER
  5
2
330
0
100
AcDbSymbolTable
 70
    17
  0
LAYER
  5
10
330
2
100
AcDbSymbolTableRecord
100
AcDbLayerTableRecord
  2
0
 70
     0
 62
     7
  6
Continuous
370
    -3
390
F
  0
LAYER
  5
73
330
2
100
AcDbSymbolTableRecord
100
AcDbLayerTableRecord
  2
FORMAT
 70
     0
 62
     7
  6
Continuous
370
    -3
390
F
  0
LAYER
  5
74
330
2
100
AcDbSymbolTableRecord
100
AcDbLayerTableRecord
  2
YARDIMCI_GEOMETRI
 70
     0
 62
    -6
  6
Continuous
290
     0
370
    -3
390
F
  0
LAYER
  5
75
330
2
100
AcDbSymbolTableRecord
100
AcDbLayerTableRecord
  2
SAYFA_CERCEVESI
 70
     0
 62
     7
  6
Continuous
370
    25
390
F
  0
LAYER
  5
76
330
2
100
AcDbSymbolTableRecord
100
AcDbLayerTableRecord
  2
ANTET
 70
     0
 62
     7
  6
Continuous
370
    -3
390
F
  0
LAYER
  5
77
330
2
100
AcDbSymbolTableRecord
100
AcDbLayerTableRecord
  2
OLCU
 70
     0
 62
   150
  6
Continuous
370
    -3
390
F
  0
LAYER
  5
78
330
2
100
AcDbSymbolTableRecord
100
AcDbLayerTableRecord
  2
METIN
 70
     0
 62
    96
  6
Continuous
370
    -3
390
F
  0
LAYER
  5
79
330
2
100
AcDbSymbolTableRecord
100
AcDbLayerTableRecord
  2
BALON
 70
     0
 62
     5
  6
Continuous
370
    -3
390
F
  0
LAYER
  5
7A
330
2
100
AcDbSymbolTableRecord
100
AcDbLayerTableRecord
  2
VURGU
 70
     0
 62
     7
  6
Continuous
370
    -3
390
F
  0
LAYER
  5
7B
330
2
100
AcDbSymbolTableRecord
100
AcDbLayerTableRecord
  2
SILIK
 70
     0
 62
     7
  6
Continuous
370
    -3
390
F
  0
LAYER
  5
7C
330
2
100
AcDbSymbolTableRecord
100
AcDbLayerTableRecord
  2
MODEL
 70
     0
 62
     7
  6
Continuous
370
    -3
390
F
  0
LAYER
  5
7D
330
2
100
AcDbSymbolTableRecord
100
AcDbLayerTableRecord
  2
DETAYLANDıRMA
 70
     0
 62
   190
  6
Continuous
370
    -3
390
F
  0
LAYER
  5
7E
330
2
100
AcDbSymbolTableRecord
100
AcDbLayerTableRecord
  2
TOLERANS
 70
     0
 62
   230
  6
Continuous
370
    -3
390
F
  0
LAYER
  5
7F
330
2
100
AcDbSymbolTableRecord
100
AcDbLayerTableRecord
  2
MERKEZ_CIZGILERI
 70
     0
 62
    30
  6
Continuous
370
    -3
390
F
  0
LAYER
  5
80
330
2
100
AcDbSymbolTableRecord
100
AcDbLayerTableRecord
  2
KESIT-DETAY_CIZGILERI
 70
     0
 62
     7
  6
Continuous
370
    -3
390
F
  0
LAYER
  5
81
330
2
100
AcDbSymbolTableRecord
100
AcDbLayerTableRecord
  2
\U+041E\U+0421\U+0415\U+0412\U+042B\U+0415
 70
     0
 62
     7
  6
Continuous
370
    -3
390
F
  0
LAYER
  5
82
330
2
100
AcDbSymbolTableRecord
100
AcDbLayerTableRecord
  2
\U+0412\U+041E\U+0414\U+042F\U+041D\U+042B\U+0415_\U+0417\U+041D\U+0410\U+041A\U+0418
 70
     0
 62
    11
  6
Continuous
370
    -3
390
F
  0
ENDTAB
  0
TABLE
  2
STYLE
  5
3
330
0
100
AcDbSymbolTable
 70
     1
  0
STYLE
  5
11
330
3
100
AcDbSymbolTableRecord
100
AcDbTextStyleTableRecord
  2
Standard
 70
     0
 40
0.0
 41
1.0
 50
0.0
 71
     0
 42
3.5
  3
txt
  4

  0
ENDTAB
  0
TABLE
  2
VIEW
  5
6
330
0
100
AcDbSymbolTable
 70
     0
  0
ENDTAB
  0
TABLE
  2
UCS
  5
7
330
0
100
AcDbSymbolTable
 70
     0
  0
ENDTAB
  0
TABLE
  2
APPID
  5
9
330
0
100
AcDbSymbolTable
 70
     1
  0
APPID
  5
12
330
9
100
AcDbSymbolTableRecord
100
AcDbRegAppTableRecord
  2
ACAD
 70
     0
  0
ENDTAB
  0
TABLE
  2
DIMSTYLE
  5
A
330
0
100
AcDbSymbolTable
 70
     1
100
AcDbDimStyleTable
  0
DIMSTYLE
105
27
330
A
100
AcDbSymbolTableRecord
100
AcDbDimStyleTableRecord
  2
ISO-25
 70
     0
 41
2.5
 42
0.625
 43
3.75
 44
1.25
 73
     0
 74
     0
 77
     1
 78
     8
140
2.5
141
2.5
143
0.0393700787
147
0.625
171
     3
172
     1
178
     0
271
     2
272
     2
274
     3
278
    44
283
     0
284
     8
340
11
  0
ENDTAB
  0
TABLE
  2
BLOCK_RECORD
  5
1
330
0
100
AcDbSymbolTable
 70
     3
  0
BLOCK_RECORD
  5
1F
330
1
100
AcDbSymbolTableRecord
100
AcDbBlockTableRecord
  2
*Model_Space
340
22
  0
BLOCK_RECORD
  5
1B
330
1
100
AcDbSymbolTableRecord
100
AcDbBlockTableRecord
  2
*Paper_Space
340
1E
  0
BLOCK_RECORD
  5
23
330
1
100
AcDbSymbolTableRecord
100
AcDbBlockTableRecord
  2
*Paper_Space0
340
26
  0
BLOCK_RECORD
  5
AF
330
1
100
AcDbSymbolTableRecord
100
AcDbBlockTableRecord
  2
SW_CENTERMARKSYMBOL_0
340
0
102
{BLKREFS
331
BA
102
}
  0
BLOCK_RECORD
  5
C3
330
1
100
AcDbSymbolTableRecord
100
AcDbBlockTableRecord
  2
SW_CENTERMARKSYMBOL_1
340
0
102
{BLKREFS
331
CE
102
}
  0
ENDTAB
  0
ENDSEC
  0
SECTION
  2
BLOCKS
  0
BLOCK
  5
20
330
1F
100
AcDbEntity
  8
0
100
AcDbBlockBegin
  2
*Model_Space
 70
     0
 10
0.0
 20
0.0
 30
0.0
  3
*Model_Space
  1

  0
ENDBLK
  5
21
330
1F
100
AcDbEntity
  8
0
100
AcDbBlockEnd
  0
BLOCK
  5
1C
330
1B
100
AcDbEntity
 67
     1
  8
0
100
AcDbBlockBegin
  2
*Paper_Space
 70
     0
 10
0.0
 20
0.0
 30
0.0
  3
*Paper_Space
  1

  0
ENDBLK
  5
1D
330
1B
100
AcDbEntity
 67
     1
  8
0
100
AcDbBlockEnd
  0
BLOCK
  5
24
330
23
100
AcDbEntity
  8
0
100
AcDbBlockBegin
  2
*Paper_Space0
 70
     0
 10
0.0
 20
0.0
 30
0.0
  3
*Paper_Space0
  1

  0
ENDBLK
  5
25
330
23
100
AcDbEntity
  8
0
100
AcDbBlockEnd
  0
BLOCK
  5
B0
330
AF
100
AcDbEntity
  8
0
100
AcDbBlockBegin
  2
SW_CENTERMARKSYMBOL_0
 70
     0
 10
0.0
 20
0.0
 30
0.0
  3
SW_CENTERMARKSYMBOL_0
  1

  0
LINE
  5
B2
330
AF
100
AcDbEntity
  8
FORMAT
 62
     0
100
AcDbLine
 10
0.0
 20
0.0
 30
0.0
 11
0.0
 21
2.5
 31
0.0
  0
LINE
  5
B3
330
AF
100
AcDbEntity
  8
FORMAT
 62
     0
100
AcDbLine
 10
0.0
 20
0.0
 30
0.0
 11
-2.5
 21
0.0
 31
0.0
  0
LINE
  5
B4
330
AF
100
AcDbEntity
  8
FORMAT
 62
     0
100
AcDbLine
 10
0.0
 20
0.0
 30
0.0
 11
0.0
 21
-2.5
 31
0.0
  0
LINE
  5
B5
330
AF
100
AcDbEntity
  8
FORMAT
 62
     0
100
AcDbLine
 10
0.0
 20
0.0
 30
0.0
 11
2.5
 21
0.0
 31
0.0
  0
LINE
  5
B6
330
AF
100
AcDbEntity
  8
FORMAT
 62
     0
100
AcDbLine
 10
0.0
 20
5.0
 30
0.0
 11
0.0
 21
40.0
 31
0.0
  0
LINE
  5
B7
330
AF
100
AcDbEntity
  8
FORMAT
 62
     0
100
AcDbLine
 10
-5.0
 20
0.0
 30
0.0
 11
-40.0
 21
0.0
 31
0.0
  0
LINE
  5
B8
330
AF
100
AcDbEntity
  8
FORMAT
 62
     0
100
AcDbLine
 10
0.0
 20
-5.0
 30
0.0
 11
0.0
 21
-40.0
 31
0.0
  0
LINE
  5
B9
330
AF
100
AcDbEntity
  8
FORMAT
 62
     0
100
AcDbLine
 10
5.0
 20
0.0
 30
0.0
 11
40.0
 21
0.0
 31
0.0
  0
ENDBLK
  5
B1
330
AF
100
AcDbEntity
  8
0
100
AcDbBlockEnd
  0
BLOCK
  5
C4
330
C3
100
AcDbEntity
  8
0
100
AcDbBlockBegin
  2
SW_CENTERMARKSYMBOL_1
 70
     0
 10
0.0
 20
0.0
 30
0.0
  3
SW_CENTERMARKSYMBOL_1
  1

  0
LINE
  5
C6
330
C3
100
AcDbEntity
  8
FORMAT
 62
     0
100
AcDbLine
 10
0.0
 20
0.0
 30
0.0
 11
0.0
 21
2.5
 31
0.0
  0
LINE
  5
C7
330
C3
100
AcDbEntity
  8
FORMAT
 62
     0
100
AcDbLine
 10
0.0
 20
0.0
 30
0.0
 11
-2.5
 21
0.0
 31
0.0
  0
LINE
  5
C8
330
C3
100
AcDbEntity
  8
FORMAT
 62
     0
100
AcDbLine
 10
0.0
 20
0.0
 30
0.0
 11
0.0
 21
-2.5
 31
0.0
  0
LINE
  5
C9
330
C3
100
AcDbEntity
  8
FORMAT
 62
     0
100
AcDbLine
 10
0.0
 20
0.0
 30
0.0
 11
2.5
 21
0.0
 31
0.0
  0
LINE
  5
CA
330
C3
100
AcDbEntity
  8
FORMAT
 62
     0
100
AcDbLine
 10
0.0
 20
5.0
 30
0.0
 11
0.0
 21
40.0
 31
0.0
  0
LINE
  5
CB
330
C3
100
AcDbEntity
  8
FORMAT
 62
     0
100
AcDbLine
 10
-5.0
 20
0.0
 30
0.0
 11
-40.0
 21
0.0
 31
0.0
  0
LINE
  5
CC
330
C3
100
AcDbEntity
  8
FORMAT
 62
     0
100
AcDbLine
 10
0.0
 20
-5.0
 30
0.0
 11
0.0
 21
-40.0
 31
0.0
  0
LINE
  5
CD
330
C3
100
AcDbEntity
  8
FORMAT
 62
     0
100
AcDbLine
 10
5.0
 20
0.0
 30
0.0
 11
40.0
 21
0.0
 31
0.0
  0
ENDBLK
  5
C5
330
C3
100
AcDbEntity
  8
0
100
AcDbBlockEnd
  0
ENDSEC
  0
SECTION
  2
ENTITIES
  0
LINE
  5
83
330
1F
100
AcDbEntity
  8
0
  6
Continuous
 62
     7
370
    25
100
AcDbLine
 10
73.4687139077
 20
102.6656793576
 30
0.0
 11
73.4687139077
 21
16.1986889463
 31
0.0
  0
LINE
  5
84
330
1F
100
AcDbEntity
  8
0
  6
Continuous
 62
     7
370
    25
100
AcDbLine
 10
148.4687168879
 20
16.1986889463
 30
0.0
 11
148.4687168879
 21
102.6656793576
 31
0.0
  0
ARC
  5
85
330
1F
100
AcDbEntity
  8
0
  6
Continuous
 62
     7
370
    25
100
AcDbCircle
 10
148.4687153978
 20
102.6656803574
 30
0.0
 40
74.99999999999999
100
AcDbArc
 50
135.0
 51
180.0
  0
LINE
  5
86
330
1F
100
AcDbEntity
  8
0
  6
Continuous
 62
     7
370
    25
100
AcDbLine
 10
158.4522117657
 20
218.715200029
 30
0.0
 11
95.4357067851
 21
155.6986959797
 31
0.0
  0
LINE
  5
87
330
1F
100
AcDbEntity
  8
0
  6
Continuous
 62
     7
370
    25
100
AcDbLine
 10
148.4687168879
 20
102.6656793576
 30
0.0
 11
211.4852209372
 21
165.6821908575
 31
0.0
  0
LINE
  5
88
330
1F
100
AcDbEntity
  8
0
  6
Continuous
 62
     7
370
    25
100
AcDbLine
 10
110.9687153978
 20
16.1986889463
 30
0.0
 11
148.4687168879
 21
16.1986889463
 31
0.0
  0
LINE
  5
89
330
1F
100
AcDbEntity
  8
0
  6
Continuous
 62
     7
370
    25
100
AcDbLine
 10
73.4687139077
 20
16.1986889463
 30
0.0
 11
110.9687153978
 21
16.1986889463
 31
0.0
  0
LWPOLYLINE
  5
8A
330
1F
100
AcDbEntity
  8
0
  6
Continuous
 62
     7
370
    25
100
AcDbPolyline
 90
       24
 70
   128
 43
0.0
 10
184.9687163515
 20
192.1986879927
 10
186.7981170101
 20
190.3692873341
 10
188.61880794
 20
188.5486038548
 10
190.4220943136
 20
186.7453100306
 10
192.1994005127
 20
184.9680038315
 10
193.9422477765
 20
183.2251640182
 10
195.6423287077
 20
181.5250756365
 10
197.2915519757
 20
179.875859819
 10
198.8820423169
 20
178.2853545767
 10
200.4062373919
 20
176.7611744028
 10
201.8568579836
 20
175.3105463606
 10
203.2270048542
 20
173.94039949
 10
204.5101438446
 20
172.6572604996
 10
205.7001505775
 20
171.4672537666
 10
206.7913700623
 20
170.3760268312
 10
207.7785943432
 20
169.388810001
 10
208.6571146531
 20
168.5102822405
 10
209.4227512164
 20
167.7446456772
 10
210.0718532486
 20
167.0955510956
 10
210.6013287587
 20
166.5660681349
 10
211.0086519999
 20
166.1587448936
 10
211.2918858213
 20
165.8755185228
 10
211.4496742172
 20
165.717730127
 10
211.4852209372
 20
165.6821908575
  0
LWPOLYLINE
  5
8B
330
1F
100
AcDbEntity
  8
0
  6
Continuous
 62
     7
370
    25
100
AcDbPolyline
 90
       24
 70
   128
 43
0.0
 10
158.4522117657
 20
218.715200029
 10
158.4877584858
 20
218.6796458584
 10
158.6455468817
 20
218.5218574625
 10
158.9287769778
 20
218.2386310917
 10
159.336100219
 20
217.8313078505
 10
159.8655757291
 20
217.3018248898
 10
160.5146777613
 20
216.6527303082
 10
161.2803143246
 20
215.8870937449
 10
162.1588383598
 20
215.0085659843
 10
163.1460589154
 20
214.0213491541
 10
164.2372784002
 20
212.9301222187
 10
165.4272888584
 20
211.7401154858
 10
166.7104241235
 20
210.4569764954
 10
168.0805709941
 20
209.0868296247
 10
169.531195311
 20
207.6362164837
 10
171.0553866608
 20
206.1120214087
 10
172.6458807273
 20
204.5215161663
 10
174.2950965447
 20
202.8723003489
 10
175.9951849265
 20
201.1722268682
 10
177.7380321903
 20
199.4293721539
 10
179.5153309388
 20
197.6520659548
 10
181.318624763
 20
195.8487721306
 10
183.1393082423
 20
194.0280886513
 10
184.9687163515
 20
192.1986879927
  0
LINE
  5
8C
330
1F
100
AcDbEntity
  8
0
  6
Continuous
 62
     1
370
    25
100
AcDbLine
 10
73.4687139077
 20
102.6656793576
 30
0.0
 11
148.4687168879
 21
102.6656793576
 31
0.0
  0
LWPOLYLINE
  5
8D
330
1F
100
AcDbEntity
  8
0
  6
Continuous
 62
     1
370
    25
100
AcDbPolyline
 90
       48
 70
   128
 43
0.0
 10
95.4357067851
 20
155.6986959797
 10
95.4515066726
 20
155.6828858477
 10
95.577794945
 20
155.5565985065
 10
95.8297689242
 20
155.3046198708
 10
96.2062281353
 20
154.9281718355
 10
96.7053788511
 20
154.4290127378
 10
97.3248424737
 20
153.8095565659
 10
98.0616667105
 20
153.0727239471
 10
98.9123395441
 20
152.2220613581
 10
99.87280879
 20
151.2615921122
 10
100.9384951351
 20
150.1959057671
 10
102.1043228714
 20
149.0300687176
 10
103.3647338657
 20
147.7696688992
 10
104.71372295
 20
146.4206667763
 10
106.1448616704
 20
144.9895294529
 10
107.6513290202
 20
143.4830667597
 10
109.2259469472
 20
141.9084461552
 10
110.8612111668
 20
140.2731852752
 10
112.5493290631
 20
138.5850699764
 10
114.2822561117
 20
136.8521394354
 10
116.051733846
 20
135.0826637965
 10
117.8493298387
 20
133.2850622159
 10
119.6664784832
 20
131.4679177624
 10
121.4945194108
 20
129.6398731094
 10
123.3247414959
 20
127.809652887
 10
125.1484229026
 20
125.9859742743
 10
126.9568715973
 20
124.1775246483
 10
128.7414719147
 20
122.3929243308
 10
130.4937199486
 20
120.6406744343
 10
132.2052617354
 20
118.9291345101
 10
133.8679426147
 20
117.2664554935
 10
135.4738407565
 20
115.6605573517
 10
137.0153025521
 20
114.1190918308
 10
138.4849817289
 20
112.649412654
 10
139.8758728785
 20
111.258523367
 10
141.1813524349
 20
109.953047536
 10
142.3951935751
 20
108.7391989451
 10
143.5116183741
 20
107.6227815968
 10
144.5252996666
 20
106.6091003042
 10
145.4314094765
 20
105.7029830438
 10
146.2256301923
 20
104.9087660533
 10
146.9041806443
 20
104.2302193266
 10
147.4638198299
 20
103.6705764156
 10
147.9018841667
 20
103.2325120789
 10
148.2162912173
 20
102.9181050282
 10
148.4055322392
 20
102.7288602811
 10
148.4687168879
 20
102.6656793576
 10
148.4687168879
 20
102.6656793576
  0
LINE
  5
8E
330
1F
100
AcDbEntity
  8
0
  6
Continuous
 62
     7
370
    25
100
AcDbLine
 10
-129.1934332646
 20
192.1986879927
 30
0.0
 11
-129.1934332646
 21
129.1821839434
 31
0.0
  0
LINE
  5
8F
330
1F
100
AcDbEntity
  8
0
  6
Continuous
 62
     7
370
    25
100
AcDbLine
 10
-54.1934302844
 20
129.1821839434
 30
0.0
 11
-54.1934302844
 21
192.1986879927
 31
0.0
  0
LINE
  5
90
330
1F
100
AcDbEntity
  8
0
  6
Continuous
 62
     7
370
    25
100
AcDbLine
 10
-129.1934332646
 20
129.1821839434
 30
0.0
 11
-129.1934332646
 21
102.6656793576
 31
0.0
  0
LINE
  5
91
330
1F
100
AcDbEntity
  8
0
  6
Continuous
 62
     7
370
    25
100
AcDbLine
 10
-54.1934302844
 20
102.6656793576
 30
0.0
 11
-54.1934302844
 21
129.1821839434
 31
0.0
  0
LINE
  5
92
330
1F
100
AcDbEntity
  8
0
  6
Continuous
 62
     7
370
    25
100
AcDbLine
 10
-129.1934332646
 20
102.6656793576
 30
0.0
 11
-129.1934332646
 21
16.1986889463
 31
0.0
  0
LINE
  5
93
330
1F
100
AcDbEntity
  8
0
  6
Continuous
 62
     7
370
    25
100
AcDbLine
 10
-54.1934302844
 20
16.1986889463
 30
0.0
 11
-54.1934302844
 21
102.6656793576
 31
0.0
  0
LWPOLYLINE
  5
94
330
1F
100
AcDbEntity
  8
0
  6
Continuous
 62
     7
370
    25
100
AcDbPolyline
 90
       92
 70
   128
 43
0.0
 10
-129.1934332646
 20
192.1986879927
 10
-129.1040784515
 20
190.3692873341
 10
-128.8364498712
 20
188.5486038548
 10
-128.3918141223
 20
186.7453100306
 10
-127.7722946204
 20
184.9680038315
 10
-126.9808455206
 20
183.2251640182
 10
-126.0212330915
 20
181.5250756365
 10
-124.8980319895
 20
179.875859819
 10
-123.616599182
 20
178.2853545767
 10
-122.183034832
 20
176.7611744028
 10
-120.6041767098
 20
175.3105463606
 10
-118.8875424511
 20
173.94039949
 10
-117.0413183815
 20
172.6572604996
 10
-115.0742999114
 20
171.4672537666
 10
-112.995859871
 20
170.3760268312
 10
-110.8159038074
 20
169.388810001
 10
-108.5448215551
 20
168.5102822405
 10
-106.1934350826
 20
167.7446456772
 10
-103.7729482002
 20
167.0955510956
 10
-101.2948972009
 20
166.5660681349
 10
-98.7710917204
 20
166.1587448936
 10
-96.2135574616
 20
165.8755185228
 10
-93.6344825266
 20
165.717730127
 10
-91.0461577539
 20
165.6861396652
 10
-88.4609175216
 20
165.7808812481
 10
-85.8910816557
 20
166.0015227419
 10
-83.3488969899
 20
166.3470061642
 10
-80.8464770041
 20
166.8156923872
 10
-78.3957482151
 20
167.4053313356
 10
-76.0083894081
 20
168.1131215912
 10
-73.695775757
 20
168.9356954914
 10
-71.468931327
 20
169.8691191298
 10
-69.3384638823
 20
170.9089519602
 10
-67.3145285643
 20
172.0502467972
 10
-65.4067701496
 20
173.2875647169
 10
-63.6242783464
 20
174.6149899584
 10
-61.975550542
 20
176.0262193304
 10
-60.4684415109
 20
177.5145175081
 10
-59.1101317502
 20
179.0727915388
 10
-57.9070976771
 20
180.693605743
 10
-56.865074376
 20
182.3692562204
 10
-55.9890202082
 20
184.0917559486
 10
-55.2831149496
 20
185.8528794867
 10
-54.7507188119
 20
187.6442374807
 10
-54.3943761684
 20
189.4573064667
 10
-54.2157783009
 20
191.283443771
 10
-54.2157783009
 20
193.1139322144
 10
-54.3943761684
 20
194.9400695187
 10
-54.7507188119
 20
196.7531385046
 10
-55.2831149496
 20
198.5444964987
 10
-55.9890202082
 20
200.3056349379
 10
-56.865074376
 20
202.0281197649
 10
-57.9070976771
 20
203.7037702423
 10
-59.1101317502
 20
205.3245844465
 10
-60.4684415109
 20
206.8828584772
 10
-61.975550542
 20
208.3711566549
 10
-63.6242783464
 20
209.782386027
 10
-65.4067701496
 20
211.1098112684
 10
-67.3145285643
 20
212.3471291882
 10
-69.3384638823
 20
213.4884240252
 10
-71.468931327
 20
214.5282568556
 10
-73.695775757
 20
215.4616953951
 10
-76.0083894081
 20
216.2842543941
 10
-78.3957482151
 20
216.9920446497
 10
-80.8464770041
 20
217.5816835981
 10
-83.3488969899
 20
218.0503698212
 10
-85.8910816557
 20
218.3958532434
 10
-88.4609175216
 20
218.6164947372
 10
-91.0461577539
 20
218.7112363201
 10
-93.6344825266
 20
218.6796458584
 10
-96.2135574616
 20
218.5218574625
 10
-98.7710917204
 20
218.2386310917
 10
-101.2948972009
 20
217.8313078505
 10
-103.7729482002
 20
217.3018248898
 10
-106.1934350826
 20
216.6527303082
 10
-108.5448215551
 20
215.8870937449
 10
-110.8159038074
 20
215.0085659843
 10
-112.995859871
 20
214.0213491541
 10
-115.0742999114
 20
212.9301222187
 10
-117.0413183815
 20
211.7401154858
 10
-118.8875424511
 20
210.4569764954
 10
-120.6041767098
 20
209.0868296247
 10
-122.183034832
 20
207.6362164837
 10
-123.616599182
 20
206.1120214087
 10
-124.8980319895
 20
204.5215161663
 10
-126.0212330915
 20
202.8723003489
 10
-126.9808455206
 20
201.1722268682
 10
-127.7722946204
 20
199.4293721539
 10
-128.3918141223
 20
197.6520659548
 10
-128.8364498712
 20
195.8487721306
 10
-129.1040784515
 20
194.0280886513
 10
-129.1934332646
 20
192.1986879927
  0
LWPOLYLINE
  5
95
330
1F
100
AcDbEntity
  8
0
  6
Continuous
 62
     7
370
    25
100
AcDbPolyline
 90
       84
 70
   128
 43
0.0
 10
-122.3934317775
 20
192.1986879927
 10
-122.3055074759
 20
193.8404532295
 10
-122.0422412105
 20
195.4728158337
 10
-121.6051398612
 20
197.0864178759
 10
-120.9967068232
 20
198.6720206362
 10
-120.2204271055
 20
200.2205493074
 10
-119.2807468421
 20
201.7231376987
 10
-118.1830490775
 20
203.1711580378
 10
-116.9336221017
 20
204.55634018
 10
-115.5396203346
 20
205.8707269054
 10
-114.0090307988
 20
207.1068080288
 10
-112.3506191022
 20
208.2574905973
 10
-110.5738847352
 20
209.316203199
 10
-108.6890033282
 20
210.27686616
 10
-106.7067754291
 20
211.1339660507
 10
-104.638551066
 20
211.8826152903
 10
-102.4961785249
 20
212.5185223442
 10
-100.2919289119
 20
213.0380215269
 10
-98.0384281672
 20
213.4381624084
 10
-95.748583956
 20
213.71665021
 10
-93.4355116285
 20
213.8718905073
 10
-91.1124610527
 20
213.9029743296
 10
-88.7927382089
 20
213.8097526651
 10
-86.4896301016
 20
213.5927321535
 10
-84.216329439
 20
213.2531793934
 10
-81.9858561106
 20
212.7930166346
 10
-79.8109878622
 20
212.2148962837
 10
-77.7041806675
 20
211.5221263987
 10
-75.6775016732
 20
210.7186855894
 10
-73.7425616778
 20
209.8091485125
 10
-71.9104434199
 20
208.7987454754
 10
-70.1916391797
 20
207.6932581287
 10
-68.5959948994
 20
206.4990045649
 10
-67.1326505787
 20
205.2228542191
 10
-65.8099899836
 20
203.8721086603
 10
-64.6355847664
 20
202.4544866901
 10
-63.6161665268
 20
200.9781243425
 10
-62.757570932
 20
199.4514854771
 10
-62.0647190906
 20
197.883287273
 10
-61.541576574
 20
196.2825300318
 10
-61.1911422409
 20
194.6583928686
 10
-61.0154202975
 20
193.020159207
 10
-61.0154202975
 20
191.3772167784
 10
-61.1911422409
 20
189.7389831167
 10
-61.541576574
 20
188.1148459536
 10
-62.0647190906
 20
186.5140887123
 10
-62.757570932
 20
184.9458905083
 10
-63.6161665268
 20
183.4192516428
 10
-64.6355847664
 20
181.9428892952
 10
-65.8099899836
 20
180.525267325
 10
-67.1326505787
 20
179.1745217663
 10
-68.5959948994
 20
177.8983714205
 10
-70.1916391797
 20
176.7041327578
 10
-71.9104434199
 20
175.5986454111
 10
-73.7425616778
 20
174.5882274729
 10
-75.6775016732
 20
173.6787052971
 10
-77.7041806675
 20
172.8752495867
 10
-79.8109878622
 20
172.1824797016
 10
-81.9858561106
 20
171.6043593508
 10
-84.216329439
 20
171.1441965919
 10
-86.4896301016
 20
170.8046438318
 10
-88.7927382089
 20
170.5876233202
 10
-91.1124610527
 20
170.4944016558
 10
-93.4355116285
 20
170.525485478
 10
-95.748583956
 20
170.6807257753
 10
-98.0384281672
 20
170.9592135769
 10
-100.2919289119
 20
171.3593544584
 10
-102.4961785249
 20
171.8788685423
 10
-104.638551066
 20
172.5147606951
 10
-106.7067754291
 20
173.2634099346
 10
-108.6890033282
 20
174.1205247265
 10
-110.5738847352
 20
175.0811727863
 10
-112.3506191022
 20
176.139885388
 10
-114.0090307988
 20
177.2905679565
 10
-115.5396203346
 20
178.5266490799
 10
-116.9336221017
 20
179.8410358053
 10
-118.1830490775
 20
181.2262179476
 10
-119.2807468421
 20
182.6742382866
 10
-120.2204271055
 20
184.1768266779
 10
-120.9967068232
 20
185.7253553492
 10
-121.6051398612
 20
187.3109581095
 10
-122.0422412105
 20
188.9245750528
 10
-122.3055074759
 20
190.5569227558
 10
-122.3934317775
 20
192.1986879927
  0
LINE
  5
96
330
1F
100
AcDbEntity
  8
0
  6
Continuous
 62
     7
370
    25
100
AcDbLine
 10
-129.1934332646
 20
16.1986889463
 30
0.0
 11
-54.1934302844
 21
16.1986889463
 31
0.0
  0
LWPOLYLINE
  5
97
330
1F
100
AcDbEntity
  8
0
  6
Continuous
 62
     1
370
    25
100
AcDbPolyline
 90
       24
 70
   128
 43
0.0
 10
-91.6934317745
 20
102.6656793576
 10
-89.1062637627
 20
102.7288602811
 10
-86.5314250648
 20
102.9181050282
 10
-83.98118539
 20
103.2325120789
 10
-81.4676980324
 20
103.6705764156
 10
-79.0029416628
 20
104.2302193266
 10
-76.5986607246
 20
104.9087660533
 10
-74.2663132794
 20
105.7029830438
 10
-72.0170127995
 20
106.6091003042
 10
-69.8614816017
 20
107.6227815968
 10
-67.8099884487
 20
108.7391989451
 10
-65.872310365
 20
109.953047536
 10
-64.057682345
 20
111.258523367
 10
-62.3747507877
 20
112.649412654
 10
-60.8315362431
 20
114.1190918308
 10
-59.4353942968
 20
115.6605573517
 10
-58.1929727293
 20
117.2664554935
 10
-57.1101984776
 20
118.9291345101
 10
-56.1922310687
 20
120.6406744343
 10
-55.4434402682
 20
122.3929243308
 10
-54.8673986293
 20
124.1775246483
 10
-54.4668479658
 20
125.9859742743
 10
-54.2436993517
 20
127.809652887
 10
-54.1934302844
 20
129.1821839434
  0
LWPOLYLINE
  5
98
330
1F
100
AcDbEntity
  8
0
  6
Continuous
 62
     1
370
    25
100
AcDbPolyline
 90
       24
 70
   128
 43
0.0
 10
-129.1934332646
 20
129.1821839434
 10
-129.1431641973
 20
127.809652887
 10
-128.9200155832
 20
125.9859742743
 10
-128.5194649197
 20
124.1775246483
 10
-127.9434232808
 20
122.3929243308
 10
-127.1946324803
 20
120.6406744343
 10
-126.2766650714
 20
118.9291345101
 10
-125.1938908197
 20
117.2664554935
 10
-123.9514692522
 20
115.6605573517
 10
-122.5553273059
 20
114.1190918308
 10
-121.0121127613
 20
112.649412654
 10
-119.329181204
 20
111.258523367
 10
-117.514553184
 20
109.953047536
 10
-115.5768751003
 20
108.7391989451
 10
-113.5253819473
 20
107.6227815968
 10
-111.3698507495
 20
106.6091003042
 10
-109.1205502696
 20
105.7029830438
 10
-106.7882028244
 20
104.9087660533
 10
-104.3839218862
 20
104.2302193266
 10
-101.9191655166
 20
103.6705764156
 10
-99.405678159
 20
103.2325120789
 10
-96.8554384842
 20
102.9181050282
 10
-94.2805997863
 20
102.7288602811
 10
-91.6934317745
 20
102.6656793576
  0
LINE
  5
99
330
1F
100
AcDbEntity
  8
0
  6
Continuous
 62
     1
370
    25
100
AcDbLine
 10
-91.6934317745
 20
102.6656793576
 30
0.0
 11
-54.1934302844
 21
102.6656793576
 31
0.0
  0
LINE
  5
9A
330
1F
100
AcDbEntity
  8
0
  6
Continuous
 62
     1
370
    25
100
AcDbLine
 10
-129.1934332646
 20
102.6656793576
 30
0.0
 11
-91.6934317745
 21
102.6656793576
 31
0.0
  0
LINE
  5
9B
330
1F
100
AcDbEntity
  8
0
  6
Continuous
 62
     7
370
    25
100
AcDbLine
 10
308.26446887
 20
102.6656793576
 30
0.0
 11
308.26446887
 21
16.1986889463
 31
0.0
  0
LINE
  5
9C
330
1F
100
AcDbEntity
  8
0
  6
Continuous
 62
     7
370
    25
100
AcDbLine
 10
383.2644718502
 20
16.1986889463
 30
0.0
 11
383.2644718502
 21
102.6656793576
 31
0.0
  0
LINE
  5
9D
330
1F
100
AcDbEntity
  8
0
  6
Continuous
 62
     7
370
    25
100
AcDbLine
 10
383.2644718502
 20
102.6656793576
 30
0.0
 11
383.2644718502
 21
129.1821839434
 31
0.0
  0
LINE
  5
9E
330
1F
100
AcDbEntity
  8
0
  6
Continuous
 62
     7
370
    25
100
AcDbLine
 10
308.26446887
 20
129.1821839434
 30
0.0
 11
308.26446887
 21
102.6656793576
 31
0.0
  0
LINE
  5
9F
330
1F
100
AcDbEntity
  8
0
  6
Continuous
 62
     7
370
    25
100
AcDbLine
 10
308.26446887
 20
192.1986879927
 30
0.0
 11
308.26446887
 21
129.1821839434
 31
0.0
  0
LINE
  5
A0
330
1F
100
AcDbEntity
  8
0
  6
Continuous
 62
     7
370
    25
100
AcDbLine
 10
383.2644718502
 20
129.1821839434
 30
0.0
 11
383.2644718502
 21
192.1986879927
 31
0.0
  0
LINE
  5
A1
330
1F
100
AcDbEntity
  8
0
  6
Continuous
 62
     7
370
    25
100
AcDbLine
 10
308.26446887
 20
16.1986889463
 30
0.0
 11
383.2644718502
 21
16.1986889463
 31
0.0
  0
LWPOLYLINE
  5
A2
330
1F
100
AcDbEntity
  8
0
  6
Continuous
 62
     7
370
    25
100
AcDbPolyline
 90
       48
 70
   128
 43
0.0
 10
308.26446887
 20
192.1986879927
 10
308.2868168865
 20
193.1139322144
 10
308.465414754
 20
194.9400695187
 10
308.8217573975
 20
196.7531385046
 10
309.3541535352
 20
198.5444964987
 10
310.0600587939
 20
200.3056349379
 10
310.9361129616
 20
202.0281197649
 10
311.9781362627
 20
203.7037702423
 10
313.1811703358
 20
205.3245844465
 10
314.5394800965
 20
206.8828584772
 10
316.0465891276
 20
208.3711566549
 10
317.695316932
 20
209.782386027
 10
319.4778087352
 20
211.1098112684
 10
321.3855671499
 20
212.3471291882
 10
323.4095024679
 20
213.4884240252
 10
325.5399699126
 20
214.5282568556
 10
327.7668143426
 20
215.4616953951
 10
330.0794279937
 20
216.2842543941
 10
332.4667868008
 20
216.9920446497
 10
334.9175155897
 20
217.5816835981
 10
337.4199355756
 20
218.0503698212
 10
339.9621202414
 20
218.3958532434
 10
342.5319561072
 20
218.6164947372
 10
345.1171963395
 20
218.7112363201
 10
347.7055211122
 20
218.6796458584
 10
350.2845960472
 20
218.5218574625
 10
352.842130306
 20
218.2386310917
 10
355.3659357865
 20
217.8313078505
 10
357.8439867858
 20
217.3018248898
 10
360.2644736682
 20
216.6527303082
 10
362.6158601408
 20
215.8870937449
 10
364.886942393
 20
215.0085659843
 10
367.0668984566
 20
214.0213491541
 10
369.145338497
 20
212.9301222187
 10
371.1123569672
 20
211.7401154858
 10
372.9585810368
 20
210.4569764954
 10
374.6752152954
 20
209.0868296247
 10
376.2540734176
 20
207.6362164837
 10
377.6876377676
 20
206.1120214087
 10
378.9690705751
 20
204.5215161663
 10
380.0922716771
 20
202.8723003489
 10
381.0518841062
 20
201.1722268682
 10
381.843333206
 20
199.4293721539
 10
382.4628527079
 20
197.6520659548
 10
382.9074884568
 20
195.8487721306
 10
383.1751170371
 20
194.0280886513
 10
383.2644718502
 20
192.1986879927
 10
383.2644718502
 20
192.1986879927
  0
LINE
  5
A3
330
1F
100
AcDbEntity
  8
0
  6
Continuous
 62
     1
370
    25
100
AcDbLine
 10
308.26446887
 20
102.6656793576
 30
0.0
 11
383.2644718502
 21
102.6656793576
 31
0.0
  0
LWPOLYLINE
  5
A4
330
1F
100
AcDbEntity
  8
0
  6
Continuous
 62
     1
370
    25
100
AcDbPolyline
 90
       48
 70
   128
 43
0.0
 10
308.26446887
 20
129.1821839434
 10
308.2700568054
 20
129.6398731094
 10
308.4040517722
 20
131.4679177624
 10
308.7160858129
 20
133.2850622159
 10
309.2046725367
 20
135.0826637965
 10
309.8674836372
 20
136.8521394354
 10
310.7013600682
 20
138.5850699764
 10
311.7023306702
 20
140.2731852752
 10
312.8656196211
 20
141.9084461552
 10
314.1856874142
 20
143.4830667597
 10
315.6562420343
 20
144.9895294529
 10
317.2702762101
 20
146.4206667763
 10
319.02009908
 20
147.7696688992
 10
320.8973715816
 20
149.0300687176
 10
322.8931455676
 20
150.1959057671
 10
324.9979122345
 20
151.2615921122
 10
327.2016412382
 20
152.2220613581
 10
329.4938309853
 20
153.0727239471
 10
331.8635561307
 20
153.8095565659
 10
334.2995271821
 20
154.4290127378
 10
336.7901333411
 20
154.9281718355
 10
339.3235058327
 20
155.3046198708
 10
341.8875728537
 20
155.5565985065
 10
344.4701151027
 20
155.6828858477
 10
347.0588256175
 20
155.6828858477
 10
349.6413678665
 20
155.5565985065
 10
352.2054348875
 20
155.3046198708
 10
354.7388073791
 20
154.9281718355
 10
357.2294135381
 20
154.4290127378
 10
359.6653845896
 20
153.8095565659
 10
362.035109735
 20
153.0727239471
 10
364.3272994821
 20
152.2220613581
 10
366.5310284857
 20
151.2615921122
 10
368.6357951526
 20
150.1959057671
 10
370.6315691386
 20
149.0300687176
 10
372.5088416402
 20
147.7696688992
 10
374.2586645101
 20
146.4206667763
 10
375.872698686
 20
144.9895294529
 10
377.343253306
 20
143.4830667597
 10
378.6633210991
 20
141.9084461552
 10
379.82661005
 20
140.2731852752
 10
380.8275806521
 20
138.5850699764
 10
381.6614570831
 20
136.8521394354
 10
382.3242681835
 20
135.0826637965
 10
382.8128549073
 20
133.2850622159
 10
383.124888948
 20
131.4679177624
 10
383.2588839148
 20
129.6398731094
 10
383.2644718502
 20
129.1821839434
  0
LINE
  5
A5
330
1F
100
AcDbEntity
  8
0
  6
Continuous
 62
     7
370
    25
100
AcDbLine
 10
184.9687163515
 20
344.8360946189
 30
0.0
 11
121.9522113709
 21
344.8360946189
 31
0.0
  0
LINE
  5
A6
330
1F
100
AcDbEntity
  8
0
  6
Continuous
 62
     7
370
    25
100
AcDbLine
 10
121.9522113709
 20
269.8360916386
 30
0.0
 11
184.9687163515
 21
269.8360916386
 31
0.0
  0
LINE
  5
A7
330
1F
100
AcDbEntity
  8
0
  6
Continuous
 62
     7
370
    25
100
AcDbLine
 10
121.9522113709
 20
344.8360946189
 30
0.0
 11
110.9687153978
 21
344.8360946189
 31
0.0
  0
LINE
  5
A8
330
1F
100
AcDbEntity
  8
0
  6
Continuous
 62
     7
370
    25
100
AcDbLine
 10
110.9687153978
 20
269.8360916386
 30
0.0
 11
121.9522113709
 21
269.8360916386
 31
0.0
  0
CIRCLE
  5
A9
330
1F
100
AcDbEntity
  8
0
  6
Continuous
 62
     7
370
    25
100
AcDbCircle
 10
110.9687153978
 20
307.3360931287
 30
0.0
 40
30.69999999999999
  0
CIRCLE
  5
AA
330
1F
100
AcDbEntity
  8
0
  6
Continuous
 62
     7
370
    25
100
AcDbCircle
 10
110.9687153978
 20
307.3360931287
 30
0.0
 40
37.5
  0
LWPOLYLINE
  5
AB
330
1F
100
AcDbEntity
  8
0
  6
Continuous
 62
     7
370
    25
100
AcDbPolyline
 90
       47
 70
   128
 43
0.0
 10
184.9687163515
 20
344.8360946189
 10
186.7981170101
 20
344.7467398058
 10
188.61880794
 20
344.4791112254
 10
190.4220943136
 20
344.0344754766
 10
192.1994005127
 20
343.4149559746
 10
193.9422477765
 20
342.6235068749
 10
195.6423287077
 20
341.6638944457
 10
197.2915519757
 20
340.5406933437
 10
198.8820423169
 20
339.2592605362
 10
200.4062373919
 20
337.8256961862
 10
201.8568579836
 20
336.246838064
 10
203.2270048542
 20
334.5302038054
 10
204.5101438446
 20
332.6839797358
 10
205.7001505775
 20
330.7169612656
 10
206.7913700623
 20
328.6385212253
 10
207.7785943432
 20
326.4585651616
 10
208.6571146531
 20
324.1874829094
 10
209.4227512164
 20
321.8360964368
 10
210.0718532486
 20
319.4156095545
 10
210.6013287587
 20
316.9375585551
 10
211.0086519999
 20
314.4137530747
 10
211.2918858213
 20
311.8562188159
 10
211.4496742172
 20
309.2771438808
 10
211.4812721295
 20
306.6888191081
 10
211.3865230961
 20
304.1035788758
 10
211.1658816023
 20
301.53374301
 10
210.82039818
 20
298.9915583442
 10
210.3517194075
 20
296.4891383583
 10
209.7620804591
 20
294.0384095694
 10
209.054282753
 20
291.6510507623
 10
208.2317163033
 20
289.3384371112
 10
207.2982852144
 20
287.1115926812
 10
206.2584449334
 20
284.9811252366
 10
205.1171500964
 20
282.9571899186
 10
203.8798396272
 20
281.0494315038
 10
202.5524069352
 20
279.2669397007
 10
201.1411850137
 20
277.6182118962
 10
199.652886836
 20
276.1111028652
 10
198.0946202559
 20
274.7527931045
 10
196.4737986011
 20
273.5497590313
 10
194.7981481237
 20
272.5077357302
 10
193.0756558461
 20
271.6316815625
 10
191.3145323081
 20
270.9257763038
 10
189.5231668634
 20
270.3933801661
 10
187.7100978775
 20
270.0370375226
 10
185.8839605732
 20
269.8584396551
 10
184.9687163515
 20
269.8360916386
  0
LWPOLYLINE
  5
AC
330
1F
100
AcDbEntity
  8
0
  6
Continuous
 62
     1
370
    25
100
AcDbPolyline
 90
       24
 70
   128
 43
0.0
 10
148.4687168879
 20
307.3360931287
 10
148.4055322392
 20
304.7489251169
 10
148.2162912173
 20
302.174086419
 10
147.9018841667
 20
299.6238467443
 10
147.4638198299
 20
297.1103593866
 10
146.9041806443
 20
294.645603017
 10
146.2256301923
 20
292.2413220788
 10
145.4314094765
 20
289.9089746336
 10
144.5252996666
 20
287.6596741537
 10
143.5116183741
 20
285.504142956
 10
142.3951935751
 20
283.452649803
 10
141.1813524349
 20
281.5149717192
 10
139.8758728785
 20
279.7003436993
 10
138.4849817289
 20
278.017412142
 10
137.0153025521
 20
276.4741975973
 10
135.4738407565
 20
275.078055651
 10
133.8679426147
 20
273.8356340836
 10
132.2052617354
 20
272.7528598319
 10
130.4937199486
 20
271.834892423
 10
128.7414719147
 20
271.0861016224
 10
126.9568715973
 20
270.5100599835
 10
125.1484229026
 20
270.1095093201
 10
123.3247414959
 20
269.8863607059
 10
121.9522113709
 20
269.8360916386
  0
LWPOLYLINE
  5
AD
330
1F
100
AcDbEntity
  8
0
  6
Continuous
 62
     1
370
    25
100
AcDbPolyline
 90
       24
 70
   128
 43
0.0
 10
121.9522113709
 20
344.8360946189
 10
123.3247414959
 20
344.7858255516
 10
125.1484229026
 20
344.5626769374
 10
126.9568715973
 20
344.1621262739
 10
128.7414719147
 20
343.5860846351
 10
130.4937199486
 20
342.8372938345
 10
132.2052617354
 20
341.9193264256
 10
133.8679426147
 20
340.8365521739
 10
135.4738407565
 20
339.5941306065
 10
137.0153025521
 20
338.1979886602
 10
138.4849817289
 20
336.6547741155
 10
139.8758728785
 20
334.9718425582
 10
141.1813524349
 20
333.1572145383
 10
142.3951935751
 20
331.2195364545
 10
143.5116183741
 20
329.1680433015
 10
144.5252996666
 20
327.0125121037
 10
145.4314094765
 20
324.7632116238
 10
146.2256301923
 20
322.4308641787
 10
146.9041806443
 20
320.0265832404
 10
147.4638198299
 20
317.5618268709
 10
147.9018841667
 20
315.0483395132
 10
148.2162912173
 20
312.4980998385
 10
148.4055322392
 20
309.9232611405
 10
148.4687168879
 20
307.3360931287
  0
LWPOLYLINE
  5
AE
330
1F
100
AcDbEntity
  8
0
  6
Continuous
 62
     1
370
    25
100
AcDbPolyline
 90
       38
 70
   128
 43
0.0
 10
117.4026982656
 20
337.354318441
 10
117.0644856786
 20
337.2478012155
 10
115.478877796
 20
336.6393681775
 10
113.9303481934
 20
335.8630884598
 10
112.4277673691
 20
334.9234081964
 10
110.979741545
 20
333.8257104317
 10
109.5945651207
 20
332.5762834559
 10
108.2801719924
 20
331.1822816889
 10
107.0440913347
 20
329.651692153
 10
105.8934027126
 20
327.9932804565
 10
104.8346980272
 20
326.2165460895
 10
103.8740401884
 20
324.3316646824
 10
103.0169333128
 20
322.3494367833
 10
102.2682850046
 20
320.2812124203
 10
101.6323854012
 20
318.1388398791
 10
101.1128750427
 20
315.9345902662
 10
100.7127313671
 20
313.6810895215
 10
100.4342444969
 20
311.3912453103
 10
100.2790116502
 20
309.0781729827
 10
100.2479203774
 20
306.755122407
 10
100.3411494924
 20
304.4353995631
 10
100.5581644161
 20
302.1322914558
 10
100.8977227641
 20
299.8589907932
 10
101.357879935
 20
297.6285174648
 10
101.9359984232
 20
295.4536492164
 10
102.6287683083
 20
293.3468420218
 10
103.4322216904
 20
291.3201630275
 10
104.3417555077
 20
289.3852230321
 10
105.3521604074
 20
287.5531047742
 10
106.457649151
 20
285.8343005339
 10
107.6518892107
 20
284.2386562536
 10
108.9280400222
 20
282.775311933
 10
110.2787922748
 20
281.4526513378
 10
111.6964087735
 20
280.2782461206
 10
113.1727696659
 20
279.258827881
 10
114.6994183102
 20
278.4002322863
 10
116.2676102279
 20
277.7073804448
 10
117.4026982656
 20
277.3178678165
  0
INSERT
  5
BA
330
1F
100
AcDbEntity
  8
FORMAT
 62
     7
100
AcDbBlockReference
  2
SW_CENTERMARKSYMBOL_0
 10
110.9687153978
 20
307.3360931287
 30
0.0
  0
LINE
  5
BB
330
1F
100
AcDbEntity
  8
0
  6
Continuous
 62
     7
370
    25
100
AcDbLine
 10
184.9687163515
 20
-59.7578560803
 30
0.0
 11
121.9522113709
 21
-59.7578560803
 31
0.0
  0
LINE
  5
BC
330
1F
100
AcDbEntity
  8
0
  6
Continuous
 62
     7
370
    25
100
AcDbLine
 10
121.9522113709
 20
-134.7578590606
 30
0.0
 11
184.9687163515
 21
-134.7578590606
 31
0.0
  0
LINE
  5
BD
330
1F
100
AcDbEntity
  8
0
  6
Continuous
 62
     7
370
    25
100
AcDbLine
 10
110.9687153978
 20
-134.7578590606
 30
0.0
 11
121.9522113709
 21
-134.7578590606
 31
0.0
  0
LINE
  5
BE
330
1F
100
AcDbEntity
  8
0
  6
Continuous
 62
     7
370
    25
100
AcDbLine
 10
121.9522113709
 20
-59.7578560803
 30
0.0
 11
110.9687153978
 21
-59.7578560803
 31
0.0
  0
LWPOLYLINE
  5
BF
330
1F
100
AcDbEntity
  8
0
  6
Continuous
 62
     7
370
    25
100
AcDbPolyline
 90
       92
 70
   128
 43
0.0
 10
184.9687163515
 20
-134.7578590606
 10
186.7981170101
 20
-134.6685042475
 10
188.61880794
 20
-134.4008756671
 10
190.4220943136
 20
-133.9562399183
 10
192.1994005127
 20
-133.3367204163
 10
193.9422477765
 20
-132.5452713166
 10
195.6423287077
 20
-131.5856588874
 10
197.2915519757
 20
-130.4624577854
 10
198.8820423169
 20
-129.181024978
 10
200.4062373919
 20
-127.7474606279
 10
201.8568579836
 20
-126.1686025057
 10
203.2270048542
 20
-124.4519682471
 10
204.5101438446
 20
-122.6057441775
 10
205.7001505775
 20
-120.6387257073
 10
206.7913700623
 20
-118.560285667
 10
207.7785943432
 20
-116.3803296033
 10
208.6571146531
 20
-114.1092473511
 10
209.4227512164
 20
-111.7578608785
 10
210.0718532486
 20
-109.3373739962
 10
210.6013287587
 20
-106.8593229968
 10
211.0086519999
 20
-104.3355175164
 10
211.2918858213
 20
-101.7779832576
 10
211.4496742172
 20
-99.1989083225
 10
211.4812721295
 20
-96.6105835498
 10
211.3865230961
 20
-94.0253433176
 10
211.1658816023
 20
-91.4555074517
 10
210.82039818
 20
-88.9133227859
 10
210.3517194075
 20
-86.4109028001
 10
209.7620804591
 20
-83.9601740111
 10
209.054282753
 20
-81.5728152041
 10
208.2317163033
 20
-79.2602015529
 10
207.2982852144
 20
-77.0333571229
 10
206.2584449334
 20
-74.9028896783
 10
205.1171500964
 20
-72.8789543603
 10
203.8798396272
 20
-70.9711959455
 10
202.5524069352
 20
-69.1887041424
 10
201.1411850137
 20
-67.5399763379
 10
199.652886836
 20
-66.0328673069
 10
198.0946202559
 20
-64.6745575462
 10
196.4737986011
 20
-63.4715234731
 10
194.7981481237
 20
-62.4295001719
 10
193.0756558461
 20
-61.5534460042
 10
191.3145323081
 20
-60.8475407455
 10
189.5231668634
 20
-60.3151446078
 10
187.7100978775
 20
-59.9588019643
 10
185.8839605732
 20
-59.7802040968
 10
184.0534646792
 20
-59.7802040968
 10
182.2273348255
 20
-59.9588019643
 10
180.4142658396
 20
-60.3151446078
 10
178.6229003949
 20
-60.8475407455
 10
176.8617768569
 20
-61.5534460042
 10
175.1392845793
 20
-62.4295001719
 10
173.4636341018
 20
-63.4715234731
 10
171.842812447
 20
-64.6745575462
 10
170.2845421417
 20
-66.0328673069
 10
168.7962476892
 20
-67.5399763379
 10
167.3850220425
 20
-69.1887041424
 10
166.0575893504
 20
-70.9711959455
 10
164.8202788813
 20
-72.8789543603
 10
163.6789840443
 20
-74.9028896783
 10
162.6391437633
 20
-77.0333571229
 10
161.7057163996
 20
-79.2602015529
 10
160.8831462247
 20
-81.5728152041
 10
160.1753522439
 20
-83.9601740111
 10
159.5857132954
 20
-86.4109028001
 10
159.117034523
 20
-88.9133227859
 10
158.7715511007
 20
-91.4555074517
 10
158.5509096069
 20
-94.0253433176
 10
158.4561605735
 20
-96.6105835498
 10
158.4877584858
 20
-99.1989083225
 10
158.6455468817
 20
-101.7779832576
 10
158.9287769778
 20
-104.3355175164
 10
159.336100219
 20
-106.8593229968
 10
159.8655757291
 20
-109.3373739962
 10
160.5146777613
 20
-111.7578608785
 10
161.2803143246
 20
-114.1092473511
 10
162.1588383598
 20
-116.3803296033
 10
163.1460589154
 20
-118.560285667
 10
164.2372784002
 20
-120.6387257073
 10
165.4272888584
 20
-122.6057441775
 10
166.7104241235
 20
-124.4519682471
 10
168.0805709941
 20
-126.1686025057
 10
169.531195311
 20
-127.7474606279
 10
171.0553866608
 20
-129.181024978
 10
172.6458807273
 20
-130.4624577854
 10
174.2950965447
 20
-131.5856588874
 10
175.9951849265
 20
-132.5452713166
 10
177.7380321903
 20
-133.3367204163
 10
179.5153309388
 20
-133.9562399183
 10
181.318624763
 20
-134.4008756671
 10
183.1393082423
 20
-134.6685042475
 10
184.9687163515
 20
-134.7578590606
  0
LWPOLYLINE
  5
C0
330
1F
100
AcDbEntity
  8
0
  6
Continuous
 62
     7
370
    25
100
AcDbPolyline
 90
       84
 70
   128
 43
0.0
 10
184.9687163515
 20
-127.9578575734
 10
183.3269511146
 20
-127.8699332718
 10
181.6945959611
 20
-127.6066670064
 10
180.0809864683
 20
-127.1695656572
 10
178.495383708
 20
-126.5611326192
 10
176.9468550367
 20
-125.7848529015
 10
175.444274096
 20
-124.8451726381
 10
173.9962463064
 20
-123.7474748735
 10
172.6110678894
 20
-122.4980478976
 10
171.2966774387
 20
-121.1040461306
 10
170.0605963154
 20
-119.5734565947
 10
168.9099062962
 20
-117.9150448982
 10
167.8512011452
 20
-116.1383105312
 10
166.8905456347
 20
-114.2534291241
 10
166.0334382934
 20
-112.271201225
 10
165.2847890539
 20
-110.202976862
 10
164.6488894505
 20
-108.0606043209
 10
164.129379092
 20
-105.8563547079
 10
163.7292344851
 20
-103.6028539632
 10
163.4507504089
 20
-101.313009752
 10
163.2955175621
 20
-98.9999374245
 10
163.2644262893
 20
-96.6768868487
 10
163.3576554043
 20
-94.3571640048
 10
163.5746684654
 20
-92.0540558975
 10
163.9142286761
 20
-89.7807552349
 10
164.3743839843
 20
-87.5502819065
 10
164.9525043351
 20
-85.3754136581
 10
165.6452742202
 20
-83.2686064635
 10
166.4487262053
 20
-81.2419274692
 10
167.358259557
 20
-79.3069874738
 10
168.3686663193
 20
-77.4748692159
 10
169.474153666
 20
-75.7560649756
 10
170.6683923287
 20
-74.1604206953
 10
171.9445426745
 20
-72.6970763747
 10
173.2952956838
 20
-71.3744157795
 10
174.7129102034
 20
-70.2000105623
 10
176.189272551
 20
-69.1805923227
 10
177.7159188671
 20
-68.321996728
 10
179.2841170711
 20
-67.6291448865
 10
180.8848668618
 20
-67.1060023699
 10
182.5090114755
 20
-66.7555680368
 10
184.1472451372
 20
-66.5798460934
 10
185.7901875658
 20
-66.5798460934
 10
187.4284212274
 20
-66.7555680368
 10
189.0525658412
 20
-67.1060023699
 10
190.6533156318
 20
-67.6291448865
 10
192.2215063853
 20
-68.321996728
 10
193.7481601519
 20
-69.1805923227
 10
195.224515049
 20
-70.2000105623
 10
196.6421370191
 20
-71.3744157795
 10
197.9928900285
 20
-72.6970763747
 10
199.2690403743
 20
-74.1604206953
 10
200.463279037
 20
-75.7560649756
 10
201.5687663836
 20
-77.4748692159
 10
202.5791694207
 20
-79.3069874738
 10
203.4887064976
 20
-81.2419274692
 10
204.2921547575
 20
-83.2686064635
 10
204.9849246425
 20
-85.3754136581
 10
205.5630449934
 20
-87.5502819065
 10
206.0232003016
 20
-89.7807552349
 10
206.3627605123
 20
-92.0540558975
 10
206.5797735734
 20
-94.3571640048
 10
206.6730026884
 20
-96.6768868487
 10
206.6419114156
 20
-98.9999374245
 10
206.4866785688
 20
-101.313009752
 10
206.2081982178
 20
-103.6028539632
 10
205.8080498857
 20
-105.8563547079
 10
205.2885432524
 20
-108.0606043209
 10
204.6526436491
 20
-110.202976862
 10
203.9039944095
 20
-112.271201225
 10
203.0468870683
 20
-114.2534291241
 10
202.0862315578
 20
-116.1383105312
 10
201.0275264067
 20
-117.9150448982
 10
199.8768363876
 20
-119.5734565947
 10
198.6407552643
 20
-121.1040461306
 10
197.3263610883
 20
-122.4980478976
 10
195.9411863966
 20
-123.7474748735
 10
194.493158607
 20
-124.8451726381
 10
192.9905776663
 20
-125.7848529015
 10
191.442048995
 20
-126.5611326192
 10
189.8564387841
 20
-127.1695656572
 10
188.2428367419
 20
-127.6066670064
 10
186.6104741378
 20
-127.8699332718
 10
184.9687163515
 20
-127.9578575734
  0
ARC
  5
C1
330
1F
100
AcDbEntity
  8
0
  6
Continuous
 62
     7
370
    25
100
AcDbCircle
 10
110.9687153978
 20
-97.2578575704
 30
0.0
 40
37.50000000000001
100
AcDbArc
 50
90.0
 51
270.0
  0
LWPOLYLINE
  5
C2
330
1F
100
AcDbEntity
  8
0
  6
Continuous
 62
     1
370
    25
100
AcDbPolyline
 90
       48
 70
   128
 43
0.0
 10
121.9522113709
 20
-59.7578560803
 10
121.4945194108
 20
-59.7634440158
 10
119.6664784832
 20
-59.8974389825
 10
117.8493298387
 20
-60.2094730232
 10
116.051733846
 20
-60.698059747
 10
114.2822561117
 20
-61.3608708475
 10
112.5493290631
 20
-62.1947472785
 10
110.8612111668
 20
-63.1957178805
 10
109.2259469472
 20
-64.3590068314
 10
107.6513290202
 20
-65.6790746246
 10
106.1448616704
 20
-67.1496292446
 10
104.71372295
 20
-68.7636634205
 10
103.3647338657
 20
-70.5134862904
 10
102.1043228714
 20
-72.390758792
 10
100.9384951351
 20
-74.3865327779
 10
99.87280879
 20
-76.4912994448
 10
98.9123395441
 20
-78.6950284485
 10
98.0616667105
 20
-80.9872181956
 10
97.3248424737
 20
-83.356943341
 10
96.7053788511
 20
-85.7929143924
 10
96.2062281353
 20
-88.2835205514
 10
95.8297689242
 20
-90.816893043
 10
95.577794945
 20
-93.380960064
 10
95.4515066726
 20
-95.963502313
 10
95.4515066726
 20
-98.5522128279
 10
95.577794945
 20
-101.1347550769
 10
95.8297689242
 20
-103.6988220979
 10
96.2062281353
 20
-106.2321945895
 10
96.7053788511
 20
-108.7228007484
 10
97.3248424737
 20
-111.1587717999
 10
98.0616667105
 20
-113.5284969453
 10
98.9123395441
 20
-115.8206866924
 10
99.87280879
 20
-118.0244156961
 10
100.9384951351
 20
-120.1291823629
 10
102.1043228714
 20
-122.1249563489
 10
103.3647338657
 20
-124.0022288505
 10
104.71372295
 20
-125.7520517204
 10
106.1448616704
 20
-127.3660858963
 10
107.6513290202
 20
-128.8366405163
 10
109.2259469472
 20
-130.1567083094
 10
110.8612111668
 20
-131.3199972604
 10
112.5493290631
 20
-132.3209678624
 10
114.2822561117
 20
-133.1548442934
 10
116.051733846
 20
-133.8176553939
 10
117.8493298387
 20
-134.3062421177
 10
119.6664784832
 20
-134.6182761584
 10
121.4945194108
 20
-134.7522711251
 10
121.9522113709
 20
-134.7578590606
  0
INSERT
  5
CE
330
1F
100
AcDbEntity
  8
FORMAT
 62
     7
100
AcDbBlockReference
  2
SW_CENTERMARKSYMBOL_1
 10
110.9687153978
 20
-97.2578575704
 30
0.0
  0
LINE
  5
CF
330
1F
100
AcDbEntity
  8
0
  6
Continuous
 62
     7
370
    25
100
AcDbLine
 10
293.1454753213
 20
-127.661520238
 30
0.0
 11
293.1454753213
 21
-198.2653467897
 31
0.0
  0
LINE
  5
D0
330
1F
100
AcDbEntity
  8
0
  6
Continuous
 62
     7
370
    25
100
AcDbLine
 10
368.1454761451
 20
-198.2653467897
 30
0.0
 11
368.1454761451
 21
-127.661520238
 31
0.0
  0
LINE
  5
D1
330
1F
100
AcDbEntity
  8
0
  6
Continuous
 62
     7
370
    25
100
AcDbLine
 10
350.4954243916
 20
-5.5970664541
 30
0.0
 11
305.9360277102
 21
-82.7762059948
 31
0.0
  0
LINE
  5
D2
330
1F
100
AcDbEntity
  8
0
  6
Continuous
 62
     7
370
    25
100
AcDbLine
 10
370.887932065
 20
-120.2762032871
 30
0.0
 11
415.4473294049
 21
-43.0970633662
 31
0.0
  0
SPLINE
  5
D3
330
1F
100
AcDbEntity
  8
0
  6
Continuous
 62
     7
370
    25
100
AcDbSpline
210
0.0
220
0.0
230
1.0
 70
     8
 71
     3
 72
    22
 73
    18
 74
     0
 42
0.000000001
 43
0.00000001
 40
0.0
 40
0.0
 40
0.0
 40
0.0
 40
0.0418234499286833
 40
0.1137588126996742
 40
0.18580884474555
 40
0.2580326536805082
 40
0.3304917404018805
 40
0.4032429568519735
 40
0.4763335779321812
 40
0.5497976006438592
 40
0.6236499286341612
 40
0.6978796123796885
 40
0.7724431586470055
 40
0.8472587600221646
 40
0.9221722574437506
 40
0.9913866117668416
 40
1.0
 40
1.0
 40
1.0
 40
1.0
 10
305.9360277101829
 20
-82.77620599482191
 30
0.0
 10
305.602989959118
 20
-83.36099649687746
 30
0.0
 10
304.6971350090858
 20
-84.95161308411082
 30
0.0
 10
303.3021715577735
 20
-87.59555212025032
 30
0.0
 10
301.7813774599046
 20
-90.71793072092558
 30
0.0
 10
300.3701620350606
 20
-93.8918838715005
 30
0.0
 10
299.0698488028365
 20
-97.11311654489506
 30
0.0
 10
297.8845541157858
 20
-100.3787704693372
 30
0.0
 10
296.8182177481875
 20
-103.6853803051246
 30
0.0
 10
295.8754710893469
 20
-107.0291364917154
 30
0.0
 10
295.0614105274447
 20
-110.4054922219112
 30
0.0
 10
294.3815415570106
 20
-113.8088773793924
 30
0.0
 10
293.8417543852374
 20
-117.2323516727487
 30
0.0
 10
293.4477186454563
 20
-120.6669003845482
 30
0.0
 10
293.2118808121899
 20
-124.0153803367035
 30
0.0
 10
293.1477681786291
 20
-126.345743757313
 30
0.0
 10
293.1457037920563
 20
-127.5304102726929
 30
0.0
 10
293.1454753213023
 20
-127.6615202379655
 30
0.0
  0
SPLINE
  5
D4
330
1F
100
AcDbEntity
  8
0
  6
Continuous
 62
     7
370
    25
100
AcDbSpline
210
0.0
220
0.0
230
1.0
 70
     8
 71
     3
 72
    19
 73
    15
 74
     0
 42
0.000000001
 43
0.00000001
 40
0.0
 40
0.0
 40
0.0
 40
0.0
 40
0.068167125294776
 40
0.1582719870832854
 40
0.2456227211605377
 40
0.3311597814401056
 40
0.415697992960574
 40
0.4999067671548149
 40
0.5842970194596355
 40
0.6691513125487822
 40
0.7546442382466568
 40
0.8408634189055875
 40
0.9277713928669515
 40
1.0
 40
1.0
 40
1.0
 40
1.0
 10
368.1457738071921
 20
-127.6833468187174
 30
0.0
 10
368.1457233742521
 20
-127.6820393806294
 30
0.0
 10
368.1456062779011
 20
-127.6790037410411
 30
0.0
 10
368.1593510377209
 20
-127.5048155754938
 30
0.0
 10
368.2011073363031
 20
-127.1924125157152
 30
0.0
 10
368.2810939410959
 20
-126.7462551759794
 30
0.0
 10
368.4082517654678
 20
-126.1821755967308
 30
0.0
 10
368.5902530925933
 20
-125.5099841559825
 30
0.0
 10
368.8327319443839
 20
-124.7433941035217
 30
0.0
 10
369.1392292043238
 20
-123.897963355232
 30
0.0
 10
369.5102158970529
 20
-122.99121840303
 30
0.0
 10
369.9452660808797
 20
-122.0431855586893
 30
0.0
 10
370.4057183928687
 20
-121.1284992961073
 30
0.0
 10
370.739348338447
 20
-120.5433208361172
 30
0.0
 10
370.8907756601934
 20
-120.2777211556499
 30
0.0
  0
LWPOLYLINE
  5
D5
330
1F
100
AcDbEntity
  8
0
  6
Continuous
 62
     7
370
    25
100
AcDbPolyline
 90
       92
 70
   128
 43
0.0
 10
304.128970385
 20
-182.9576940848
 10
306.0215578245
 20
-181.9380766061
 10
308.0314857123
 20
-180.9962640783
 10
310.1491824331
 20
-180.1367480156
 10
312.364552829
 20
-179.3636226551
 10
314.6670377973
 20
-178.6805718408
 10
317.0456696086
 20
-178.090852296
 10
319.489111419
 20
-177.5972738545
 10
321.9857168691
 20
-177.202186345
 10
324.5235906692
 20
-176.9074765495
 10
327.090636674
 20
-176.714545013
 10
329.6746257119
 20
-176.624314027
 10
332.2632390493
 20
-176.6372116627
 10
334.8441434648
 20
-176.7531770927
 10
337.4050399809
 20
-176.9716583109
 10
339.9337231339
 20
-177.2916144127
 10
342.4181455106
 20
-177.7115178764
 10
344.8464638464
 20
-178.2293705303
 10
347.2071075144
 20
-178.8427050735
 10
349.4888292329
 20
-179.5485961003
 10
351.6807521516
 20
-180.3436812004
 10
353.7724340595
 20
-181.2241706526
 10
355.7539053336
 20
-182.1858693322
 10
357.6157216636
 20
-183.2241949832
 10
359.3490138132
 20
-184.3341978204
 10
360.9455207943
 20
-185.5105888049
 10
362.397633825
 20
-186.7477619786
 10
363.6984337425
 20
-188.039822146
 10
364.841721009
 20
-189.3806113188
 10
365.8220455101
 20
-190.7637411264
 10
366.6347407994
 20
-192.1826186665
 10
367.2759287084
 20
-193.6304826219
 10
367.7425575417
 20
-195.1004344341
 10
368.0324014189
 20
-196.5854683368
 10
368.1440787136
 20
-198.078507852
 10
368.0770586391
 20
-199.5724384849
 10
367.8316599307
 20
-201.0601388975
 10
367.4090521636
 20
-202.5345212069
 10
366.8112504839
 20
-203.9885598778
 10
366.0411011211
 20
-205.4153244176
 10
365.1022741436
 20
-206.8080139712
 10
363.999246337
 20
-208.1599960989
 10
362.737272228
 20
-209.4648250244
 10
361.3223682792
 20
-210.7162842133
 10
359.7612714009
 20
-211.9084072833
 10
358.0614260271
 20
-213.0355158778
 10
356.2309312676
 20
-214.0922380095
 10
354.2785103674
 20
-215.0735378563
 10
352.2134688898
 20
-215.9747399015
 10
350.0456431024
 20
-216.7915465649
 10
347.7853682029
 20
-217.520068711
 10
345.4434127109
 20
-218.1568331099
 10
343.0309422487
 20
-218.6988063877
 10
340.5594457837
 20
-219.1434041514
 10
338.0407040185
 20
-219.4885077153
 10
335.4867222197
 20
-219.7324739863
 10
332.9096702896
 20
-219.8741396452
 10
330.3218261322
 20
-219.9128295107
 10
327.7355256031
 20
-219.8483595807
 10
325.1630927042
 20
-219.681036272
 10
322.6167855831
 20
-219.4116571804
 10
320.1087398979
 20
-219.0415072795
 10
317.6509055972
 20
-218.5723482753
 10
315.2549948951
 20
-218.0064189869
 10
312.9324282706
 20
-217.3464132966
 10
310.6942719054
 20
-216.5954774883
 10
308.5511929036
 20
-215.7571904791
 10
306.5134031502
 20
-214.8355466167
 10
304.5906135013
 20
-213.8349383572
 10
302.791985834
 20
-212.7601346678
 10
301.1260943565
 20
-211.6162556494
 10
299.6008766293
 20
-210.4087533864
 10
298.2235996088
 20
-209.1433832196
 10
297.0008279958
 20
-207.8261733091
 10
295.9383862873
 20
-206.4634027269
 10
295.0413419832
 20
-205.0615643906
 10
294.3139690374
 20
-203.627337881
 10
293.7597287599
 20
-202.167560169
 10
293.3812671824
 20
-200.6891860783
 10
293.1803873998
 20
-199.1992616732
 10
293.1580456189
 20
-197.7048870022
 10
293.3143472066
 20
-196.2131818824
 10
293.6485506418
 20
-194.7312577675
 10
294.1590582957
 20
-193.2661744078
 10
294.8434440902
 20
-191.8249147596
 10
295.6984396689
 20
-190.4143458272
 10
296.7199745682
 20
-189.041190911
 10
297.9031814857
 20
-187.7119946315
 10
299.2424189998
 20
-186.4330885243
 10
300.7313058143
 20
-185.2105682294
 10
302.3627497341
 20
-184.0502615576
 10
304.128970385
 20
-182.9576940848
  0
LWPOLYLINE
  5
D6
330
1F
100
AcDbEntity
  8
0
  6
Continuous
 62
     7
370
    25
100
AcDbPolyline
 90
       84
 70
   128
 43
0.0
 10
308.9372975487
 20
-185.733482272
 10
307.3577070942
 20
-186.7171425446
 10
305.9115061469
 20
-187.7669492953
 10
304.6069788674
 20
-188.876889951
 10
303.4515980896
 20
-190.0406067446
 10
302.4519808685
 20
-191.2514345416
 10
301.613854566
 20
-192.5024371468
 10
300.9420179956
 20
-193.7864495028
 10
300.4403203502
 20
-195.0961157069
 10
300.1116355179
 20
-196.4239357722
 10
299.9578443019
 20
-197.7623032644
 10
299.9798304688
 20
-199.1035516822
 10
300.1774662611
 20
-200.4399993176
 10
300.5496216164
 20
-201.7639910746
 10
301.0941608748
 20
-203.0679421883
 10
301.8079684622
 20
-204.3443849863
 10
302.6869548173
 20
-205.5860072855
 10
303.7260847088
 20
-206.7856976324
 10
304.9194055529
 20
-207.9365844605
 10
306.2600833039
 20
-209.0320750579
 10
307.7404403206
 20
-210.065894154
 10
309.3519939325
 20
-211.0321213908
 10
311.0855145147
 20
-211.9252218069
 10
312.9310733153
 20
-212.7400795306
 10
314.8780970316
 20
-213.4720277656
 10
316.9154365052
 20
-214.1168732406
 10
319.0314196933
 20
-214.6709222273
 10
321.2139277304
 20
-215.1310016397
 10
323.4504594663
 20
-215.4944765219
 10
325.7282029174
 20
-215.7592639244
 10
328.0341110001
 20
-215.9238477307
 10
330.3549772627
 20
-215.9872858802
 10
332.6775083259
 20
-215.9492141705
 10
334.9884002734
 20
-215.809850819
 10
337.2744137265
 20
-215.569994182
 10
339.5224607716
 20
-215.2310181925
 10
341.7196589611
 20
-214.7948639969
 10
343.8534261436
 20
-214.2640308303
 10
345.9115384159
 20
-213.6415577691
 10
347.8822088191
 20
-212.9310117549
 10
349.7541482541
 20
-212.1364615535
 10
351.5166361925
 20
-211.262459744
 10
353.1595751713
 20
-210.3140112598
 10
354.6735547541
 20
-209.2965486303
 10
356.0499052025
 20
-208.2159009967
 10
357.2807403637
 20
-207.0782571884
 10
358.3590121652
 20
-205.8901342635
 10
359.2785418129
 20
-204.6583366886
 10
360.0340649022
 20
-203.3899211728
 10
360.6212521615
 20
-202.0921512374
 10
361.0367410625
 20
-200.7724637613
 10
361.2781516253
 20
-199.438414236
 10
361.3441009065
 20
-198.0976455923
 10
361.2342109016
 20
-196.7578380175
 10
360.9491124961
 20
-195.4266656162
 10
360.4904375634
 20
-194.1117523106
 10
359.8608123789
 20
-192.8206300218
 10
359.0638451081
 20
-191.5606949504
 10
358.1041001228
 20
-190.339163857
 10
356.9870739649
 20
-189.1630328135
 10
355.7191650528
 20
-188.0390399469
 10
354.3076371324
 20
-186.9736215294
 10
352.760574208
 20
-185.9728813986
 10
351.0868381895
 20
-185.0425513011
 10
349.2960169499
 20
-184.1879593859
 10
347.3983659617
 20
-183.4140025944
 10
345.4047554898
 20
-182.7251131345
 10
343.3266056837
 20
-182.1252362169
 10
341.1758197355
 20
-181.617808195
 10
338.9647163788
 20
-181.205735846
 10
336.7059620585
 20
-180.8913800233
 10
334.4124925645
 20
-180.6765393098
 10
332.0974465182
 20
-180.5624465954
 10
329.7740843719
 20
-180.5497542514
 10
327.4557126758
 20
-180.6385360306
 10
325.1556116386
 20
-180.8282817455
 10
322.8869574188
 20
-181.1179056314
 10
320.6627417823
 20
-181.5057486279
 10
318.4957069069
 20
-181.9895886436
 10
316.398264381
 20
-182.5666553821
 10
314.382429349
 20
-183.2336425079
 10
312.4597474133
 20
-183.9867300764
 10
310.6412317429
 20
-184.8216041125
 10
308.9372975487
 20
-185.733482272
  0
LWPOLYLINE
  5
D7
330
1F
100
AcDbEntity
  8
0
  6
Continuous
 62
     7
370
    25
100
AcDbPolyline
 90
       92
 70
   128
 43
0.0
 10
356.4548728672
 20
-9.0394114449
 10
357.8116378727
 20
-9.8228979723
 10
359.2883027596
 20
-10.6755939885
 10
360.877823736
 20
-11.5934502962
 10
362.5726354425
 20
-12.5720801173
 10
364.3646535867
 20
-13.606815364
 10
366.2453407977
 20
-14.6927446657
 10
368.2057408701
 20
-15.8246723066
 10
370.2364972035
 20
-16.9972262097
 10
372.3279489501
 20
-18.2047856968
 10
374.4701138921
 20
-19.4416297763
 10
376.6527977607
 20
-20.7018481715
 10
378.8655916012
 20
-21.9794371377
 10
381.0979455307
 20
-23.2683055442
 10
383.339233275
 20
-24.5623243068
 10
385.5787679738
 20
-25.8553050902
 10
387.8058733035
 20
-27.141108294
 10
390.0099414293
 20
-28.4135913396
 10
392.1804685662
 20
-29.6666900367
 10
394.3071109557
 20
-30.8944509013
 10
396.3797319513
 20
-32.0910035857
 10
398.3884583246
 20
-33.2506481394
 10
400.3237129451
 20
-34.3678677901
 10
402.1762780418
 20
-35.4373289656
 10
403.937321257
 20
-36.4539510847
 10
405.5984525278
 20
-37.4128724763
 10
407.1517548734
 20
-38.3095289879
 10
408.5898270765
 20
-39.1396421224
 10
409.9058163232
 20
-39.8992682986
 10
411.093445367
 20
-40.5847841111
 10
412.1470678475
 20
-41.1929121839
 10
413.0616491918
 20
-41.720770973
 10
413.832839055
 20
-42.1658375016
 10
414.4569601245
 20
-42.5259834759
 10
414.9310384132
 20
-42.7994927717
 10
415.2528137965
 20
-42.9850796798
 10
415.420755817
 20
-43.0818371916
 10
415.4340570989
 20
-43.089318361
 10
415.292666276
 20
-43.0074823105
 10
414.9972458439
 20
-42.8367307258
 10
414.5492037708
 20
-42.5778591835
 10
413.9506816434
 20
-42.2321050555
 10
413.2045296425
 20
-41.8011269728
 10
412.3143039082
 20
-41.2869789648
 10
411.2842428331
 20
-40.6920967691
 10
410.1192565251
 20
-40.0193221602
 10
408.8249004655
 20
-39.2718694887
 10
407.4073438994
 20
-38.4532830907
 10
405.8733382251
 20
-37.5674798702
 10
404.2301906523
 20
-36.6186793367
 10
402.4857378608
 20
-35.6113823073
 10
400.6482880481
 20
-34.5504226177
 10
398.7266024902
 20
-33.4408347997
 10
396.7298349559
 20
-32.2879164388
 10
394.6675014133
 20
-31.097146802
 10
392.5494312977
 20
-29.8742104124
 10
390.3857174623
 20
-28.6249346911
 10
388.1866687628
 20
-27.3552808319
 10
385.9627692276
 20
-26.0712806825
 10
383.724613521
 20
-24.7790694454
 10
381.4828674298
 20
-23.4848050701
 10
379.2482178141
 20
-22.1946363148
 10
377.0313080704
 20
-20.9147415314
 10
374.8427045453
 20
-19.6511967273
 10
372.6928399009
 20
-18.4100280403
 10
370.5919558213
 20
-17.1971451992
 10
368.5500661344
 20
-16.0183415279
 10
366.5769006707
 20
-14.8792280726
 10
364.6818620874
 20
-13.785239095
 10
362.8739831868
 20
-12.7415709301
 10
361.1618750557
 20
-11.7532128828
 10
359.5536991598
 20
-10.824867242
 10
358.0571202162
 20
-9.9609646595
 10
356.6792692741
 20
-9.1656245867
 10
355.4267110345
 20
-8.4426181585
 10
354.3054165203
 20
-7.7954102139
 10
353.3207291619
 20
-7.2270819236
 10
352.4773377959
 20
-6.740330414
 10
351.7792674466
 20
-6.3374938677
 10
351.2298398123
 20
-6.0204709184
 10
350.8316759003
 20
-5.7907890985
 10
350.5866723186
 20
-5.64953336
 10
350.4959973253
 20
-5.597371173
 10
350.5600802914
 20
-5.634570784
 10
350.7786196034
 20
-5.7609510276
 10
351.1505681757
 20
-5.975891219
 10
351.6741637431
 20
-6.2783699406
 10
352.3469038365
 20
-6.6669718896
 10
353.1655773929
 20
-7.1398240052
 10
354.1262937313
 20
-7.6946730394
 10
355.2244693819
 20
-8.328877953
 10
356.4548728672
 20
-9.0394114449
  0
LWPOLYLINE
  5
D8
330
1F
100
AcDbEntity
  8
0
  6
Continuous
 62
     7
370
    25
100
AcDbPolyline
 90
       84
 70
   128
 43
0.0
 10
361.2632000308
 20
-11.8151996321
 10
360.1644685686
 20
-11.1806975978
 10
359.1963765318
 20
-10.6216072634
 10
358.3644596453
 20
-10.141143825
 10
357.6734963083
 20
-9.7420487714
 10
357.1274338365
 20
-9.4266081265
 10
356.7294029504
 20
-9.1966243107
 10
356.4816822141
 20
-9.0534321039
 10
356.3856914495
 20
-8.99783096
 10
356.4419851512
 20
-9.0301572443
 10
356.6502340467
 20
-9.1502127448
 10
357.0092474878
 20
-9.3573201798
 10
357.5169708155
 20
-9.6502760441
 10
358.1704972143
 20
-10.0274152409
 10
358.9660775904
 20
-10.4865863615
 10
359.8991581085
 20
-11.0251429332
 10
360.9643953385
 20
-11.6400008289
 10
362.1556858898
 20
-12.3276584122
 10
363.4662065828
 20
-13.0841558474
 10
364.8884529737
 20
-13.9051612156
 10
366.4142759032
 20
-14.7859733606
 10
368.0349358686
 20
-15.7215624019
 10
369.7411505613
 20
-16.706545466
 10
371.5231453289
 20
-17.7353040297
 10
373.3707169707
 20
-18.8019234117
 10
375.2732787253
 20
-19.9003160805
 10
377.2199356324
 20
-21.0241739092
 10
379.1995355699
 20
-22.1670645585
 10
381.2007403771
 20
-23.3224329957
 10
383.2120867697
 20
-24.4836822899
 10
385.2220554872
 20
-25.6441435713
 10
387.2191312204
 20
-26.7971775504
 10
389.1918763681
 20
-27.9361897262
 10
391.1289916238
 20
-29.0546319055
 10
393.0193805124
 20
-30.1461033433
 10
394.8522152453
 20
-31.204370514
 10
396.6169986228
 20
-32.2233541858
 10
398.3036193527
 20
-33.1972161105
 10
399.9024231725
 20
-34.1203940096
 10
401.4042418255
 20
-34.9875939671
 10
402.8004799888
 20
-35.7938345423
 10
404.0831402979
 20
-36.5345159712
 10
405.2448760302
 20
-37.2053897528
 10
406.2790279838
 20
-37.8026103617
 10
407.1796771605
 20
-38.3227535047
 10
407.9416605714
 20
-38.762855668
 10
408.560618652
 20
-39.1203867449
 10
409.0330071155
 20
-39.3932812198
 10
409.3561101246
 20
-39.5800066128
 10
409.5280903399
 20
-39.6794767964
 10
409.5479546764
 20
-39.6911173951
 10
409.4155885474
 20
-39.6148734005
 10
409.1317519132
 20
-39.4511764749
 10
408.6980713788
 20
-39.2009647296
 10
408.1170309739
 20
-38.8656834916
 10
407.3919616168
 20
-38.4472183896
 10
406.5270068695
 20
-37.9480033438
 10
405.5271314991
 20
-37.3708795094
 10
404.3980602329
 20
-36.719157258
 10
403.146256356
 20
-35.9965734082
 10
401.7788953693
 20
-35.2072516886
 10
400.3038034159
 20
-34.3557341111
 10
398.729434602
 20
-33.4468766283
 10
397.064804937
 20
-32.4859083354
 10
395.3194496102
 20
-31.478309469
 10
393.503369896
 20
-30.4298659277
 10
391.6269566389
 20
-29.3465885956
 10
389.7009701269
 20
-28.2346652263
 10
387.7364350535
 20
-27.1004849683
 10
385.7446046274
 20
-25.9505263929
 10
383.7368914248
 20
-24.7913784098
 10
381.7247929744
 20
-23.6296973035
 10
379.7198344635
 20
-22.472112818
 10
377.7334995913
 20
-21.3252794912
 10
375.7771680069
 20
-20.1957492787
 10
373.8620428694
 20
-19.0900027333
 10
371.9990981646
 20
-18.0143577504
 10
370.1989983622
 20
-16.9749961843
 10
368.4720589033
 20
-15.9778497789
 10
366.8281711265
 20
-15.0286480754
 10
365.276748267
 20
-14.1328263955
 10
363.8266819927
 20
-13.2954946611
 10
362.4862699645
 20
-12.5214868209
 10
361.2632000308
 20
-11.8151996321
  0
LWPOLYLINE
  5
D9
330
1F
100
AcDbEntity
  8
0
  6
Continuous
 62
     1
370
    25
100
AcDbPolyline
 90
       13
 70
   128
 43
0.0
 10
357.1619810814
 20
-112.353867533
 10
358.9282017323
 20
-113.4464350059
 10
360.5596456521
 20
-114.6067416777
 10
362.0485324666
 20
-115.8292619725
 10
363.3877699807
 20
-117.1081680798
 10
364.5709768982
 20
-118.4373643593
 10
365.5925117975
 20
-119.8105192755
 10
366.4475073762
 20
-121.2210882079
 10
367.1318931707
 20
-122.6623478561
 10
367.6424008245
 20
-124.1274312157
 10
367.9766042598
 20
-125.6093553307
 10
368.1329058475
 20
-127.1010604504
 10
368.1454761451
 20
-127.661520238
  0
LWPOLYLINE
  5
DA
330
1F
100
AcDbEntity
  8
0
  6
Continuous
 62
     1
370
    25
100
AcDbPolyline
 90
       36
 70
   128
 43
0.0
 10
293.1454753213
 20
-127.661520238
 10
293.1468727527
 20
-127.4746813003
 10
293.2585500475
 20
-125.9816417851
 10
293.5483939247
 20
-124.4966078824
 10
294.015022758
 20
-123.0266560702
 10
294.6562106669
 20
-121.5787921147
 10
295.4689059563
 20
-120.1599145746
 10
296.4492304574
 20
-118.7767847671
 10
297.5925177239
 20
-117.4359955942
 10
298.8933176414
 20
-116.1439354269
 10
300.345430672
 20
-114.9067622531
 10
301.9419376532
 20
-113.7303712686
 10
303.6752298028
 20
-112.6203684314
 10
305.5370461328
 20
-111.5820427804
 10
307.5185174069
 20
-110.6203441008
 10
309.6101993147
 20
-109.7398546487
 10
311.8021222334
 20
-108.9447695486
 10
314.083843952
 20
-108.2388785217
 10
316.44448762
 20
-107.6255439786
 10
318.8728059558
 20
-107.1076913246
 10
321.3572283324
 20
-106.6877878609
 10
323.8859114855
 20
-106.3678317592
 10
326.4468080016
 20
-106.149350541
 10
329.027712417
 20
-106.0333851109
 10
331.6163257545
 20
-106.0204874753
 10
334.2003147923
 20
-106.1107184613
 10
336.7673607971
 20
-106.3036499978
 10
339.3052345973
 20
-106.5983597933
 10
341.8018400473
 20
-106.9934473028
 10
344.2452818578
 20
-107.4870257442
 10
346.623913669
 20
-108.0767452891
 10
348.9263986374
 20
-108.7597961034
 10
351.1417690333
 20
-109.5329214639
 10
353.2594657541
 20
-110.3924375266
 10
355.2693936419
 20
-111.3342500544
 10
357.1619810814
 20
-112.353867533
  0
LWPOLYLINE
  5
DB
330
1F
100
AcDbEntity
  8
0
  6
Continuous
 62
     1
370
    25
100
AcDbPolyline
 90
       15
 70
   128
 43
0.0
 10
357.1619810814
 20
-112.353867533
 10
358.946706833
 20
-113.3841624361
 10
360.6335791269
 20
-114.3579449291
 10
362.214551537
 20
-115.2705791528
 10
363.6820972289
 20
-116.1177171165
 10
365.0292185086
 20
-116.8953163719
 10
366.2494942379
 20
-117.599679554
 10
367.3371140786
 20
-118.2274467721
 10
368.2868933098
 20
-118.775616327
 10
369.0943031209
 20
-119.241589574
 10
369.7554962949
 20
-119.6231462027
 10
370.2673263061
 20
-119.9184522183
 10
370.6273486374
 20
-120.1261184909
 10
370.83385239
 20
-120.2451475194
 10
370.887932065
 20
-120.2762032871
  0
LWPOLYLINE
  5
DC
330
1F
100
AcDbEntity
  8
0
  6
Continuous
 62
     1
370
    25
100
AcDbPolyline
 90
       33
 70
   128
 43
0.0
 10
305.9360277102
 20
-82.7762059948
 10
305.9701577671
 20
-82.7960408847
 10
306.1501518929
 20
-82.90016042
 10
306.483888806
 20
-83.0930369117
 10
306.9697753174
 20
-83.3737551166
 10
307.6055001057
 20
-83.7409840364
 10
308.3880315871
 20
-84.1929629437
 10
309.3136409177
 20
-84.7275489404
 10
310.3779176605
 20
-85.3421805399
 10
311.5757890471
 20
-86.033942595
 10
312.9015458259
 20
-86.7995270423
 10
314.3488732136
 20
-87.6352910798
 10
315.9108716393
 20
-88.537254319
 10
317.5800975746
 20
-89.5011147567
 10
319.3485990945
 20
-90.5222829973
 10
321.2079428779
 20
-91.5958849168
 10
323.1492728184
 20
-92.7168099535
 10
325.1633389999
 20
-93.8797187142
 10
327.2405385262
 20
-95.0790680702
 10
329.3709761076
 20
-96.3091385338
 10
331.5444969879
 20
-97.5640684804
 10
333.7507462131
 20
-98.8378792432
 10
335.9792068274
 20
-100.1245093333
 10
338.2192630935
 20
-101.417808356
 10
340.4602347364
 20
-102.7116282642
 10
342.6914467498
 20
-103.999805867
 10
344.9022642982
 20
-105.2761860227
 10
347.0821552795
 20
-106.5346973017
 10
349.2207258856
 20
-107.7693451401
 10
351.3077881037
 20
-108.9742386441
 10
353.3333992289
 20
-110.143640778
 10
355.2878987425
 20
-111.2719774846
 10
357.1619810814
 20
-112.353867533
  0
ENDSEC
  0
SECTION
  2
OBJECTS
  0
DICTIONARY
  5
C
330
0
100
AcDbDictionary
281
     1
  3
ACAD_GROUP
350
D
  3
ACAD_LAYOUT
350
1A
  3
ACAD_MLINESTYLE
350
17
  3
ACAD_PLOTSETTINGS
350
19
  3
ACAD_PLOTSTYLENAME
350
E
  3
ACAD_SCALELIST
350
47
  0
DICTIONARY
  5
D
102
{ACAD_REACTORS
330
C
102
}
330
C
100
AcDbDictionary
281
     1
  0
DICTIONARY
  5
1A
102
{ACAD_REACTORS
330
C
102
}
330
C
100
AcDbDictionary
281
     1
  3
Layout1
350
1E
  3
Layout2
350
26
  3
Model
350
22
  0
DICTIONARY
  5
17
102
{ACAD_REACTORS
330
C
102
}
330
C
100
AcDbDictionary
281
     1
  3
Standard
350
18
  0
DICTIONARY
  5
19
102
{ACAD_REACTORS
330
C
102
}
330
C
100
AcDbDictionary
281
     1
  0
ACDBDICTIONARYWDFLT
  5
E
102
{ACAD_REACTORS
330
C
102
}
330
C
100
AcDbDictionary
281
     1
  3
Normal
350
F
100
AcDbDictionaryWithDefault
340
F
  0
DICTIONARY
  5
47
102
{ACAD_REACTORS
330
C
102
}
330
C
100
AcDbDictionary
281
     1
  3
A0
350
48
  3
A1
350
49
  3
A2
350
4A
  3
A3
350
4B
  3
A4
350
4C
  3
A5
350
4D
  3
A6
350
4E
  3
A7
350
4F
  3
A8
350
50
  3
A9
350
51
  3
B0
350
52
  3
B1
350
53
  3
B2
350
54
  3
B3
350
55
  3
B4
350
56
  3
B5
350
57
  3
B6
350
58
  3
B7
350
59
  3
B8
350
5A
  3
B9
350
5B
  3
C0
350
5C
  3
C1
350
5D
  3
C2
350
5E
  3
C3
350
5F
  3
C4
350
60
  3
C5
350
61
  3
C6
350
62
  3
C7
350
63
  3
C8
350
64
  3
C9
350
65
  3
D0
350
66
  3
D1
350
67
  3
D2
350
68
  0
LAYOUT
  5
1E
102
{ACAD_REACTORS
330
1A
102
}
330
1A
100
AcDbPlotSettings
  1

  2
none_device
  4

  6

 40
0.0
 41
0.0
 42
0.0
 43
0.0
 44
0.0
 45
0.0
 46
0.0
 47
0.0
 48
0.0
 49
0.0
140
0.0
141
0.0
142
1.0
143
1.0
 70
   688
 72
     1
 73
     0
 74
     5
  7

 75
    16
147
1.0
148
0.0
149
0.0
100
AcDbLayout
  1
Layout1
 70
     1
 71
     1
 10
0.0
 20
0.0
 11
420.0
 21
297.0
 12
0.0
 22
0.0
 32
0.0
 14
1.0000000000E+20
 24
1.0000000000E+20
 34
1.0000000000E+20
 15
-1.0000000000E+20
 25
-1.0000000000E+20
 35
-1.0000000000E+20
146
0.0
 13
0.0
 23
0.0
 33
0.0
 16
1.0
 26
0.0
 36
0.0
 17
0.0
 27
1.0
 37
0.0
 76
     0
330
1B
  0
LAYOUT
  5
26
102
{ACAD_REACTORS
330
1A
102
}
330
1A
100
AcDbPlotSettings
  1

  2
none_device
  4

  6

 40
0.0
 41
0.0
 42
0.0
 43
0.0
 44
0.0
 45
0.0
 46
0.0
 47
0.0
 48
0.0
 49
0.0
140
0.0
141
0.0
142
1.0
143
1.0
 70
   688
 72
     1
 73
     0
 74
     5
  7

 75
    16
147
1.0
148
0.0
149
0.0
100
AcDbLayout
  1
Layout2
 70
     1
 71
     2
 10
0.0
 20
0.0
 11
0.0
 21
0.0
 12
0.0
 22
0.0
 32
0.0
 14
0.0
 24
0.0
 34
0.0
 15
0.0
 25
0.0
 35
0.0
146
0.0
 13
0.0
 23
0.0
 33
0.0
 16
1.0
 26
0.0
 36
0.0
 17
0.0
 27
1.0
 37
0.0
 76
     0
330
23
  0
LAYOUT
  5
22
102
{ACAD_REACTORS
330
1A
102
}
330
1A
100
AcDbPlotSettings
  1

  2
none_device
  4
Letter_(8.50_x_11.00_Inches)
  6

 40
6.35
 41
6.35
 42
6.35000508
 43
6.35000508
 44
215.9
 45
279.4
 46
0.0
 47
0.0
 48
0.0
 49
0.0
140
0.0
141
0.0
142
1.0
143
1.0
 70
  1712
 72
     1
 73
     0
 74
     0
  7

 75
     0
147
1.0
148
0.0
149
0.0
100
AcDbLayout
  1
Model
 70
     1
 71
     0
 10
0.0
 20
0.0
 11
279.4
 21
215.9
 12
0.0
 22
0.0
 32
0.0
 14
0.0
 24
0.0
 34
0.0
 15
279.4
 25
215.9
 35
0.0
146
0.0
 13
0.0
 23
0.0
 33
0.0
 16
1.0
 26
0.0
 36
0.0
 17
0.0
 27
1.0
 37
0.0
 76
     0
330
1F
331
29
  0
MLINESTYLE
  5
18
102
{ACAD_REACTORS
330
17
102
}
330
17
100
AcDbMlineStyle
  2
Standard
 70
     0
  3

 62
   256
 51
90.0
 52
90.0
 71
     2
 49
0.5
 62
   256
  6
BYLAYER
 49
-0.5
 62
   256
  6
BYLAYER
  0
ACDBPLACEHOLDER
  5
F
102
{ACAD_REACTORS
330
E
102
}
330
E
  0
SCALE
  5
48
102
{ACAD_REACTORS
330
47
102
}
330
47
100
AcDbScale
 70
     0
300
1:1
140
1.0
141
1.0
290
     1
  0
SCALE
  5
49
102
{ACAD_REACTORS
330
47
102
}
330
47
100
AcDbScale
 70
     0
300
1:2
140
1.0
141
2.0
290
     0
  0
SCALE
  5
4A
102
{ACAD_REACTORS
330
47
102
}
330
47
100
AcDbScale
 70
     0
300
1:4
140
1.0
141
4.0
290
     0
  0
SCALE
  5
4B
102
{ACAD_REACTORS
330
47
102
}
330
47
100
AcDbScale
 70
     0
300
1:5
140
1.0
141
5.0
290
     0
  0
SCALE
  5
4C
102
{ACAD_REACTORS
330
47
102
}
330
47
100
AcDbScale
 70
     0
300
1:8
140
1.0
141
8.0
290
     0
  0
SCALE
  5
4D
102
{ACAD_REACTORS
330
47
102
}
330
47
100
AcDbScale
 70
     0
300
1:10
140
1.0
141
10.0
290
     0
  0
SCALE
  5
4E
102
{ACAD_REACTORS
330
47
102
}
330
47
100
AcDbScale
 70
     0
300
1:16
140
1.0
141
16.0
290
     0
  0
SCALE
  5
4F
102
{ACAD_REACTORS
330
47
102
}
330
47
100
AcDbScale
 70
     0
300
1:20
140
1.0
141
20.0
290
     0
  0
SCALE
  5
50
102
{ACAD_REACTORS
330
47
102
}
330
47
100
AcDbScale
 70
     0
300
1:30
140
1.0
141
30.0
290
     0
  0
SCALE
  5
51
102
{ACAD_REACTORS
330
47
102
}
330
47
100
AcDbScale
 70
     0
300
1:40
140
1.0
141
40.0
290
     0
  0
SCALE
  5
52
102
{ACAD_REACTORS
330
47
102
}
330
47
100
AcDbScale
 70
     0
300
1:50
140
1.0
141
50.0
290
     0
  0
SCALE
  5
53
102
{ACAD_REACTORS
330
47
102
}
330
47
100
AcDbScale
 70
     0
300
1:100
140
1.0
141
100.0
290
     0
  0
SCALE
  5
54
102
{ACAD_REACTORS
330
47
102
}
330
47
100
AcDbScale
 70
     0
300
2:1
140
2.0
141
1.0
290
     0
  0
SCALE
  5
55
102
{ACAD_REACTORS
330
47
102
}
330
47
100
AcDbScale
 70
     0
300
4:1
140
4.0
141
1.0
290
     0
  0
SCALE
  5
56
102
{ACAD_REACTORS
330
47
102
}
330
47
100
AcDbScale
 70
     0
300
8:1
140
8.0
141
1.0
290
     0
  0
SCALE
  5
57
102
{ACAD_REACTORS
330
47
102
}
330
47
100
AcDbScale
 70
     0
300
10:1
140
10.0
141
1.0
290
     0
  0
SCALE
  5
58
102
{ACAD_REACTORS
330
47
102
}
330
47
100
AcDbScale
 70
     0
300
100:1
140
100.0
141
1.0
290
     0
  0
SCALE
  5
59
102
{ACAD_REACTORS
330
47
102
}
330
47
100
AcDbScale
 70
     0
300
1/128" = 1'-0"
140
0.0078125
141
12.0
290
     0
  0
SCALE
  5
5A
102
{ACAD_REACTORS
330
47
102
}
330
47
100
AcDbScale
 70
     0
300
1/64" = 1'-0"
140
0.015625
141
12.0
290
     0
  0
SCALE
  5
5B
102
{ACAD_REACTORS
330
47
102
}
330
47
100
AcDbScale
 70
     0
300
1/32" = 1'-0"
140
0.03125
141
12.0
290
     0
  0
SCALE
  5
5C
102
{ACAD_REACTORS
330
47
102
}
330
47
100
AcDbScale
 70
     0
300
1/16" = 1'-0"
140
0.0625
141
12.0
290
     0
  0
SCALE
  5
5D
102
{ACAD_REACTORS
330
47
102
}
330
47
100
AcDbScale
 70
     0
300
3/32" = 1'-0"
140
0.09375
141
12.0
290
     0
  0
SCALE
  5
5E
102
{ACAD_REACTORS
330
47
102
}
330
47
100
AcDbScale
 70
     0
300
1/8" = 1'-0"
140
0.125
141
12.0
290
     0
  0
SCALE
  5
5F
102
{ACAD_REACTORS
330
47
102
}
330
47
100
AcDbScale
 70
     0
300
3/16" = 1'-0"
140
0.1875
141
12.0
290
     0
  0
SCALE
  5
60
102
{ACAD_REACTORS
330
47
102
}
330
47
100
AcDbScale
 70
     0
300
1/4" = 1'-0"
140
0.25
141
12.0
290
     0
  0
SCALE
  5
61
102
{ACAD_REACTORS
330
47
102
}
330
47
100
AcDbScale
 70
     0
300
3/8" = 1'-0"
140
0.375
141
12.0
290
     0
  0
SCALE
  5
62
102
{ACAD_REACTORS
330
47
102
}
330
47
100
AcDbScale
 70
     0
300
1/2" = 1'-0"
140
0.5
141
12.0
290
     0
  0
SCALE
  5
63
102
{ACAD_REACTORS
330
47
102
}
330
47
100
AcDbScale
 70
     0
300
3/4" = 1'-0"
140
0.75
141
12.0
290
     0
  0
SCALE
  5
64
102
{ACAD_REACTORS
330
47
102
}
330
47
100
AcDbScale
 70
     0
300
1" = 1'-0"
140
1.0
141
12.0
290
     0
  0
SCALE
  5
65
102
{ACAD_REACTORS
330
47
102
}
330
47
100
AcDbScale
 70
     0
300
1-1/2" = 1'-0"
140
1.5
141
12.0
290
     0
  0
SCALE
  5
66
102
{ACAD_REACTORS
330
47
102
}
330
47
100
AcDbScale
 70
     0
300
3" = 1'-0"
140
3.0
141
12.0
290
     0
  0
SCALE
  5
67
102
{ACAD_REACTORS
330
47
102
}
330
47
100
AcDbScale
 70
     0
300
6" = 1'-0"
140
6.0
141
12.0
290
     0
  0
SCALE
  5
68
102
{ACAD_REACTORS
330
47
102
}
330
47
100
AcDbScale
 70
     0
300
1'-0" = 1'-0"
140
12.0
141
12.0
290
     0
  0
ENDSEC
  0
EOF
